» » »

I Wipe My Ass With Showbiz Tabs (ver.1)

Artists:  A B C D E F G H I J K L M N O P Q R S T U V W X Y Z # 

I Wipe My Ass With Showbiz Tabs (ver.1)

A Wilhelm Scream
Rating:
4/5 (2 votes)

Tabs too difficult? Try these video lessons and learn fast.
                This is one of the best unknown bands around! everyone should try and see them live,
put on a kick-ass show!!

This is the first time i picked up my guitar in almost 6 months, and i did this tab in
5 minutes, so forgive me if it's not the most accurate. I've only tabbed the chorus and
i'm not skilled enough for the solo, even though it doesn't sound like one of their hard 
Also my guitar is broken and the low E string on my guitar is not working so good so
did the best i could, there is a part at the end of the chorus that i couldn't figure 
because of my low E problem.

-------------------------------------------------------------------------------
-------------------------------------------------------------------------------

Tuning: Drop-D

Listen to the song for timing.

Verse 1
e|---------------------------------------------------------------------------|
B|---------------------------------------------------------------------------|
G|-7---5---7-5-----5-7------7-------7-5-----5-7------------------------------|
D|-7-3-5-5-7-5-8-3-5-7------7-8-3-5-7-5-8-3-5-7------------------------------|
A|-5-3-3-5-5-3-8-3-3-5------5-8-3-5-5-3-8-3-3-5------------------------------|
D|---3---5-----8-3------------8-3-5-----8-3----------------------------------|

Chorus (except very end)
e|---------------------------------------------------------------------------|
B|---------------------------------------------------------------------------|
G|-3---3-----3-5-7-----------------------------------------------------------|
D|-3-0-3-0-3-3-5-7-----------------------------------------------------------|
A|-1-0-1-0-3-1-3-5-----------------------------------------------------------|
D|---0---0-3-----------------------------------------------------------------|

Repeat Verse

Repeat Chorus

When the solo starts play the verse once and chorus once.

I'll try and figure out the rest of the chorus, and some other songs off of Career Suicide


===============================================================================
            
Tabs too difficult? Try these video lessons and learn fast.




comments powered by Disqus
↑ Back to top | Tablatures and chords are parodies/interpretations of the original songs. You may use it for private study, scholarship, research or language learning purposes only