» » »

Congratulations Tabs (ver.1)

Artists:  A B C D E F G H I J K L M N O P Q R S T U V W X Y Z # 

Congratulations Tabs (ver.1)

A Wilhelm Scream
Rating:
5/5 (4 votes)

Hard to play? Try these video lessons and learn fast.
                Track: Congratulations
Released: 2005
Label: Nitro

Key:
|---| ~ this is a section which is palm muted
  h   ~ hammer on
  ~   ~ let note ring
  p   ~ pull off
  /   ~ slide from the note before the slash to the note after it unless theres no number to slide
        to, in which case just slide down the neck from the first number..
0:00
e-----------------------------------------------------------------|
B-----------------------------------------------------------------|
G-----------------7-7-7-7-7-7-7-x---------------------------5h7---|
D-5-5-5-5-5-5-5-x-7-7-7-7-7-7-7-x-3-3-3-3-3-3-3-x-1-1-1-1-x-------|
A-5-5-5-5-5-5-5-x-5-5-5-5-5-5-5-x-3-3-3-3-3-3-3-x-1-1-1-1-x-------|
D-5-5-5-5-5-5-5-x-----------------3-3-3-3-3-3-3-x-1-1-1-1-x-------|

0:05
e-----------------------------------------------------------------|
B-----------------------------------------------------------------|
G-----------------7-7-7-7-7-7-7-x---------------------------5h7---|
D-5-5-5-5-5-5-5-x-7-7-7-7-7-7-7-x-3-3-3-3-3-3-3-x-1-1-1-1-x-------|
A-5-5-5-5-5-5-5-x-5-5-5-5-5-5-5-x-3-3-3-3-3-3-3-x-1-1-1-1-x-------|
D-5-5-5-5-5-5-5-x-----------------3-3-3-3-3-3-3-x-1-1-1-1-x-------|

0:09
e---------------------------------------------------------------|
B---------------------------------------------------------------|
G-----------------7-7-7-7-7-7-7-x-8-8-8-8-8-8-8-x---------------|
D-5-5-5-5-5-5-5-x-7-7-7-7-7-7-7-x-8-8-8-8-8-8-8-x-3-3-3-3-3-3-3-|
A-5-5-5-5-5-5-5-x-5-5-5-5-5-5-5-x-6-6-6-6-6-6-6-x-3-3-3-3-3-3-3-|
D-5-5-5-5-5-5-5-x---------------------------------3-3-3-3-3-3-3-|

0:13
e---------------------------------------------------------------|
B---------------------------------------------------------------|
G------------------------------------------------5-5-5-5-5-5-5--|
D-5-5-x-5--5-5-5-x-3-3-x-3--3-3-3-x-1-1-x-1--1-1-5-5-5-5-5-5-5--|
A-5-5-x-5--5-5-5-x-3-3-x-3--3-3-3-x-1-1-x-1--1-1-3-3-3-3-3-3-3--|
D-5-5-x-5--5-5-5-x-3-3-x-3--3-3-3-x-1-1-x-1--1-1----------------|

0:18 - Muted
e---------------------------------------------------------------------------------------------|
B---------------------------------------------------------------------------------------------|
G-----------------3-3-3-3-3-3-3-x---------------5-5-5-5-5-5-5-5-5-5-5-5-5-5-8-8-8-8-8-8-8-8-8-|
D-5-5-5-5-5-5-5-x-3-3-3-3-3-3-3-x-1-1-1-1-1-1-1-5-5-5-5-5-5-5-5-5-5-5-5-5-5-8-8-8-8-8-8-8-8-8-|
A-5-5-5-5-5-5-5-x-1-1-1-1-1-1-1-x-1-1-1-1-1-1-1-3-3-3-3-3-3-3-3-3-3-3-3-3-3-6-6-6-6-6-6-6-6-6-|
D-5-5-5-5-5-5-5-x-----------------1-1-1-1-1-1-1-----------------------------------------------|

0:28 - Repeat 2x
Rhythm
e----------------------------------------------|
B---------------3-3~---------------3-3-6-3-6---|
G-----2-3-5-3-5----------2-3-5-3-5-------------|
D-3-5----------------3-5-----------------------|
A----------------------------------------------|
D----------------------------------------------|

0:28 - Repeat 2x
Lead
e-----------------------------------------------------------|
B--------------------------------------------------10----10-|
G-----5-7--8-7-8--10-10~---------5-7--8-7-8--10-10----10----|
D-7-8-----------------------7-8-----------------------------|
A-----------------------------------------------------------|
D-----------------------------------------------------------|

0:37
e-----------------------------------------------------------------|
B-----------------------------------------------------------------|
G-----------------7-7-7-7-7-7-7-x---------------------------5h7---|
D-5-5-5-5-5-5-5-x-7-7-7-7-7-7-7-x-3-3-3-3-3-3-3-x-1-1-1-1-x-------|
A-5-5-5-5-5-5-5-x-5-5-5-5-5-5-5-x-3-3-3-3-3-3-3-x-1-1-1-1-x-------|
D-5-5-5-5-5-5-5-x-----------------3-3-3-3-3-3-3-x-1-1-1-1-x-------|

0:41
e-----------------------------------------------------------------|
B-----------------------------------------------------------------|
G-----------------7-7-7-7-7-7-7-x---------------------------5h7---|
D-5-5-5-5-5-5-5-x-7-7-7-7-7-7-7-x-3-3-3-3-3-3-3-x-1-1-1-1-x-------|
A-5-5-5-5-5-5-5-x-5-5-5-5-5-5-5-x-3-3-3-3-3-3-3-x-1-1-1-1-x-------|
D-5-5-5-5-5-5-5-x-----------------3-3-3-3-3-3-3-x-1-1-1-1-x-------|

0:46
e---------------------------------------------------------------|
B---------------------------------------------------------------|
G-----------------7-7-7-7-7-7-7-x-8-8-8-8-8-8-8-x---------------|
D-5-5-5-5-5-5-5-x-7-7-7-7-7-7-7-x-8-8-8-8-8-8-8-x-3-3-3-3-3-3-3-|
A-5-5-5-5-5-5-5-x-5-5-5-5-5-5-5-x-6-6-6-6-6-6-6-x-3-3-3-3-3-3-3-|
D-5-5-5-5-5-5-5-x---------------------------------3-3-3-3-3-3-3-|

0:51
e---------------------------------------------------------------|
B---------------------------------------------------------------|
G------------------------------------------------5-5-5-5-5-5-5--|
D-5-5-x-5--5-5-5-x-3-3-x-3--3-3-3-x-1-1-x-1--1-1-5-5-5-5-5-5-5--|
A-5-5-x-5--5-5-5-x-3-3-x-3--3-3-3-x-1-1-x-1--1-1-3-3-3-3-3-3-3--|
D-5-5-x-5--5-5-5-x-3-3-x-3--3-3-3-x-1-1-x-1--1-1----------------|

0:55 - Muted
e---------------------------------------------------------------------------------------------|
B---------------------------------------------------------------------------------------------|
G-----------------3-3-3-3-3-3-3-x---------------5-5-5-5-5-5-5-5-5-5-5-5-5-5-8-8-8-8-8-8-8-8-8-|
D-5-5-5-5-5-5-5-x-3-3-3-3-3-3-3-x-1-1-1-1-1-1-1-5-5-5-5-5-5-5-5-5-5-5-5-5-5-8-8-8-8-8-8-8-8-8-|
A-5-5-5-5-5-5-5-x-1-1-1-1-1-1-1-x-1-1-1-1-1-1-1-3-3-3-3-3-3-3-3-3-3-3-3-3-3-6-6-6-6-6-6-6-6-6-|
D-5-5-5-5-5-5-5-x-----------------1-1-1-1-1-1-1-----------------------------------------------|

1:05
e---------------------------------------------------------------------------------------------------------------|
B---------------------------------------------------------------------------------------------------------------|
G-----------------3-3-3-3-3-3-3-x-------------------------------7-7-7-7-7-7-7-8-8-8-8-8-8-8-8-8-x---------------|
D-5-5-5-5-5-5-5-x-3-3-3-3-3-3-3-x-1-1-1-1-1-1-1-x-5-5-5-5-5-5-5-7-7-7-7-7-7-7-8-8-8-8-8-8-8-8-8-x-3-3-3-3-3-3-3-|
A-5-5-5-5-5-5-5-x-1-1-1-1-1-1-1-x-1-1-1-1-1-1-1-x-5-5-5-5-5-5-5-5-5-5-5-5-5-5-6-6-6-6-6-6-6-6-6-x-3-3-3-3-3-3-3-|
D-5-5-5-5-5-5-5-x-----------------1-1-1-1-1-1-1-x-5-5-5-5-5-5-5-----------------------------------3-3-3-3-3-3-3-|

1:14
e---------------------------------------------------------------------------------------------------|
B---------------------------------------------------------------------------------------------------|
G-----------------3-3-3-3-3-3-3-x---------------5-5-5-5-5-5-5-5-5-5-5-5-5-5-8-8-8-8-8-8-8-8-8-------|
D-5-5-5-5-5-5-5-x-3-3-3-3-3-3-3-x-1-1-1-1-1-1-1-5-5-5-5-5-5-5-5-5-5-5-5-5-5-8-8-8-8-8-8-8-8-8--5-5--|\
A-5-5-5-5-5-5-5-x-1-1-1-1-1-1-1-x-1-1-1-1-1-1-1-3-3-3-3-3-3-3-3-3-3-3-3-3-3-6-6-6-6-6-6-6-6-6--5-5--|\
D-5-5-5-5-5-5-5-x-----------------1-1-1-1-1-1-1------------------------------------------------5-5--|\
            
Hard to play? Try these video lessons and learn fast. | Correct




comments powered by Disqus
↑ Back to top | Tablatures and chords are parodies/interpretations of the original songs. You may use it for private study, scholarship, research or language learning purposes only