» » »

A Wilhelm Scream, Anchor End Tabs (ver.2)

Artists:  A B C D E F G H I J K L M N O P Q R S T U V W X Y Z # 

Anchor End Tabs (ver.2)

A Wilhelm Scream Tabs
Rating:
3/5 (1 vote)
Anchor End lessons Tabs too difficult? Try these video lessons and learn fast
                Track: Anchor End
Released: 2004
Label: Nitro Records

Key:
|---| ~ this is a section which is palm muted
  h   ~ hammer on
  ~   ~ let note ring
  p   ~ pull off
  /   ~ slide from the note before the slash to the note after it unless theres no number to slide
        to, in which case just slide down the neck from the first number..
  ^   ~ bend

Rhythm x2
0:00
e------------------------------------------------------------|
B------------------------------------------------------------|
G----------10-12---------------------------------------------|
D-12-10-12-------12-10--12-12h13p12-----------12h13----12----|
A-----------------------------------13h15p13--------15----13-|
D------------------------------------------------------------|

Lead x2
0:00
e----------------------------------------------------------|
B-------------------------------------------8-10-10-11-----|
G-10-----7-8-7------10~--10h12p10~--7h8p7~-------------12~-|
D----7-8-------8-7-----------------------------------------|
A----------------------------------------------------------|
D----------------------------------------------------------|

Rythm
0:07
e------------------------------------|
B------------------------------------|
G----------10-12---------------------|
D-12-10-12-------12-10---------------|
A------------------------------------|
D------------------------------------|

Lead
0:07
e---------------------------------------------------|
B---------------------------------------------------|
G-10-----7-8-7--------------------------------------|
D----7-8-------8-7--8-8--8-8-8--8-8-8--8-8-8--8-8-8-|
A---------------------------------------------------|
D---------------------------------------------------|


0:12
e-----------------------------------|
B-----------------------------------|
G-----------------------------------|
D-6-6-5-8-8-10-10-12-12-13-13-12\---|
A-6-6-5-----------------------------|
D-6-6-5-----------------------------|
       |----------------------------|

0:15
Rhythm
e--------------------------------------------------------------|
B--------------------------------------------------------------|
G----------------------------5--5-5-5-5-5-x-x-------3-3-3-3----|
D-1--1-1-1-1-1-1-1-1-1-1-x-x-5--5-5-5-5-5-x-x-5-5-x-3-3-3-3----|
A-1--1-1-1-1-1-1-1-1-1-1-x-x-3--3-3-3-3-3-x-x-5-5-x-1-1-1-1----|
D-1--1-1-1-1-1-1-1-1-1-1-x-x------------------5-5-x------------|

0:15
Lead
e----------------------------------|
B-8---8---8---8--------------------|
G--7---7---7---7------7---8-7------|
D-----------------8-8---8-----8-7--|
A----------------------------------|
D----------------------------------|
                 |-----------------|
0:20
e----------------------------------------|
B----------------------------------------|
G----7-10-----7-10-----------------------|
D--7--------8----------------------------|
A---------6------------------------------|
D----------------------------------------|

0:22
Rhythm
e-------------------------------------------------------------------|
B-------------------------------------------------------------------|
G-8-8-8-x-x-x-8-8-8-x-x-x-------------------------------------------|
D-8-8-8-x-x-x-8-8-8-x-x-x-5-5-5-x-x-x-5-5-5-x-x-x-3-3-3-x-x-x-1-1-1-|
A-6-6-6-x-x-x-6-6-6-x-x-x-5-5-5-x-x-x-5-5-5-x-x-x-3-3-3-x-x-x-1-1-1-|
D-------------------------5-5-5-x-x-x-5-5-5-x-x-x-3-3-3-x-x-x-1-1-1-|

0:27
e----------------------------------|
B----------------------------------|
G-----7---8-7----------7---8-7-----|
D-8-8---8-----8-7--8-8---8-----8-7-|
A----------------------------------|
D----------------------------------|

0:30
e-------------------------------------------------------------------|
B-------------------------------------------------------------------|
G-8-8-8-x-x-x-8-8-8-x-x-x-------------------------------------------|
D-8-8-8-x-x-x-8-8-8-x-x-x-5-5-5-x-x-x-5-5-5-x-x-x-3-3-3-x-x-x-1-1-1-|
A-6-6-6-x-x-x-6-6-6-x-x-x-5-5-5-x-x-x-5-5-5-x-x-x-3-3-3-x-x-x-1-1-1-|
D-------------------------5-5-5-x-x-x-5-5-5-x-x-x-3-3-3-x-x-x-1-1-1-|

0:34
e--------------------|
B--------------------|
G-----7---8-7--------|
D-8-8---8-----8-7-8~-|
A--------------------|
D--------------------|
 |---|

0:36
Repeat 2x
e---------------------------------------------------|
B---------------------------------------------------|
G--------------------3-3-x-8-8--8-8-8--8-8-8--8-8-8-|
D-3-3--3-3-3-x-5-5-x-3-3-x-8-8--8-8-8--8-8-8--8-8-8-|
A-3-3--3-3-3-x-5-5-x-1-1-x-6-6--6-6-6--6-6-6--6-6-6-|
D-3-3--3-3-3-x-5-5-x--------------------------------|

0:46
e-----------------------------------|
B-----------------------------------|
G-----------------------------------|
D-6-6-5-8-8-10-10-12-12-13-13-12\---|
A-6-6-5-----------------------------|
D-6-6-5-----------------------------|
       |----------------------------|

0:51
Rhythm
e--------------------------------------------------------------|
B--------------------------------------------------------------|
G----------------------------5--5-5-5-5-5-x-x-------3-3-3-3----|
D-1--1-1-1-1-1-1-1-1-1-1-x-x-5--5-5-5-5-5-x-x-5-5-x-3-3-3-3----|
A-1--1-1-1-1-1-1-1-1-1-1-x-x-3--3-3-3-3-3-x-x-5-5-x-1-1-1-1----|
D-1--1-1-1-1-1-1-1-1-1-1-x-x------------------5-5-x------------|

0:51
Lead
e----------------------------------|
B-8---8---8---8--------------------|
G--7---7---7---7------7---8-7------|
D-----------------8-8---8-----8-7--|
A----------------------------------|
D----------------------------------|
                 |-----------------|


0:57
Rhythm
e--------------------------------------------------------------------------------------------------------------|
B--------------------------------------------------------------------------------------------------------------|
G-------------------------------------------8-8-8-x-x-x-8-8-8-x-x-x--------------------------------------------|
D-5-5-5-x-x-x-5-5-5-x-x-x-3-3-3-x-x-x-1-1-1-8-8-8-x-x-x-8-8-8-x-x-x-5-5-5-x-x-x-5-5-5-x-x-x-3-3-3-x-x-x-1-1-1--|
A-5-5-5-x-x-x-5-5-5-x-x-x-3-3-3-x-x-x-1-1-1-6-6-6-x-x-x-6-6-6-x-x-x-5-5-5-x-x-x-5-5-5-x-x-x-3-3-3-x-x-x-1-1-1--|
D-5-5-5-x-x-x-5-5-5-x-x-x-3-3-3-x-x-x-1-1-1-------------------------5-5-5-x-x-x-5-5-5-x-x-x-3-3-3-x-x-x-1-1-1--|

1:00
Lead
e----------------------------------|
B----------------------------------|
G-----7---8-7----------7---8-7-----|
D-8-8---8-----8-7--8-8---8-----8-7-|
A----------------------------------|
D----------------------------------|

1:06
e--------------------|
B--------------------|
G-----7---8-7--------|
D-8-8---8-----8-7-8~-|
A--------------------|
D--------------------|
 |---|

1:09
Repeat 2x
e---------------------------------------------------|
B---------------------------------------------------|
G--------------------3-3-x-8-8--8-8-8--8-8-8--8-8-8-|
D-3-3--3-3-3-x-5-5-x-3-3-x-8-8--8-8-8--8-8-8--8-8-8-|
A-3-3--3-3-3-x-5-5-x-1-1-x-6-6--6-6-6--6-6-6--6-6-6-|
D-3-3--3-3-3-x-5-5-x--------------------------------|

1:18
Rhythm - Muted (until 1:40)
e----------|
B----------|
G----------|
D-8-7-8-5--|
A----------|
D----------|
repeat this until 1:46


1:18
Lead - Muted
Repeat 6x then
e---------|----------------|
B---------|--------6-7-5-7-|
G-7-5-7---|--7-5-7---------|
D-------8-|----------------|
A---------|----------------|
D---------|----------------|

1:25 - Muted (Until 1:40)
Repeat 3x then
e---------|----------------|
B---------|--------6-------|
G-7-5-7---|--7-5-7---7-5-7-|
D-------8-|----------------|
A---------|----------------|
D---------|----------------|
repeat this until 1:46

1:18
Rhythm
e----------|
B----------|
G----------|
D-8-7-8-5--|
A----------|
D----------|

1:46
e-----------------------------------------------------------------------------|
B-----------------------------------------------------------------------------|
G-----------------------------------------------------------------------------|
D-5-5-5-5-5-5-5-5-5-5-5-5-3-3-3-3-3-3-3-3-3-1-1-1-1-1-1-1-1-1--1~--3~--1~--3~-|
A-5-5-5-5-5-5-5-5-5-5-5-5-3-3-3-3-3-3-3-3-3-1-1-1-1-1-1-1-1-1--1~--3~--1~--3~-|
D-5-5-5-5-5-5-5-5-5-5-5-5-3-3-3-3-3-3-3-3-3-1-1-1-1-1-1-1-1-1--1~--3~--1~--3~-|

2:03
Repeat 4x
(at start of 3rd repeat, second guitar does pick slide)
e----------------|
B----------------|
G-7-7--7--7------|
D-8-8--8--8------|
A-6-6--6--6------|
D----------------|

2:08
e---------------------------------------------------|
B---------------------------------------------------|
G--------------------3-3-x-8-8--8-8-8--8-8-8--8-8-8-|
D-3-3--3-3-3-x-5-5-x-3-3-x-8-8--8-8-8--8-8-8--8-8-8-|
A-3-3--3-3-3-x-5-5-x-1-1-x-6-6--6-6-6--6-6-6--6-6-6-|
D-3-3--3-3-3-x-5-5-x--------------------------------|

2:11
Rhythm
e------------|
B------------|
G--5^5^5~----|
D------------|
A------------|
D------------|

2:11
Lead
e--------------|
B--------------|
G--------------|
D-10^10^10~----|
A--------------|
D--------------|

2:13
e---------------------------------------------------|
B---------------------------------------------------|
G--------------------3-3-x-8-8--8-8-8--8-8-8--8-8-8-|
D-3-3--3-3-3-x-5-5-x-3-3-x-8-8--8-8-8--8-8-8--8-8-8-|
A-3-3--3-3-3-x-5-5-x-1-1-x-6-6--6-6-6--6-6-6--6-6-6-|
D-3-3--3-3-3-x-5-5-x--------------------------------|

2:16
Rhythm
e------------|
B------------|
G--5^5^5~----|
D------------|
A------------|
D------------|

2:16
Lead
e--------------|
B-6^6^6~-------|
G--------------|
D--------------|
A--------------|
D--------------|

2:17
Repeat 2x
e--------------------------------------------------------------|
B--------------------------------------------------------------|
G--------------------------------------------------------------|
D-5-5-5-5-5-5-5-5-5-5-5-5-3-3-3-3-3-3-3-3-3-1-1-1-1-1-1-1-1-1--|
A-5-5-5-5-5-5-5-5-5-5-5-5-3-3-3-3-3-3-3-3-3-1-1-1-1-1-1-1-1-1--|
D-5-5-5-5-5-5-5-5-5-5-5-5-3-3-3-3-3-3-3-3-3-1-1-1-1-1-1-1-1-1--|

2:27
Rhythm
Repeat 4x
e------------------|
B---------6-8-6----|
G-5-7-5-7-------7--|
D------------------|
A------------------|
D------------------|

2:27
Lead
Repeat 3x
e---------------------|
B-6-------------------|
G-------7-8-7---------|
D---7-8-------8-7-----|
A---------------------|
D---------------------|

2:30
Rhythm
e----------------------------------------------------------------------------------------------------------------|
B-6/8\6----------------------------------------------------------------------------------------------------------|
G--------8-10-8----5-7---7---------------------------------------------------------------------------------------|
D----------------------8---7-8-5-----------1-1-1-1-1-1-1-3-3-3-3-3-3-3-3-1-1-1-1-1-1-1-3-3-3-3-3-3-3-3-5-5-5-5\--|
A--------------------------------6-5-3-1-0-1-1-1-1-1-1-1-3-3-3-3-3-3-3-3-1-1-1-1-1-1-1-3-3-3-3-3-3-3-3-5-5-5-5\--|
D------------------------------------------1-1-1-1-1-1-1-3-3-3-3-3-3-3-3-1-1-1-1-1-1-1-3-3-3-3-3-3-3-3-5-5-5-5\--|
                                                                                                       |---------|
2:30
Lead                                           repeat this part 2x
e----------------------6^6--1-3----3-1------|-------------------------|
B----------3---3-4-3------------4------4-3-1|-3~-3~-3~-3~-3~-3~-4~-4~-|
G-3-5-3--5---5------------------------------|-------------------------|
D-------------------------------------------|-------------------------|
A-------------------------------------------|-------------------------|
D-------------------------------------------|-------------------------|
            

comments powered by Disqus
↑ Back to top | A Wilhelm Scream Tabs for Anchor End. Lyrics for acoustic guitar and electric guitar. Tablatures and chords are parodies/interpretations of the original songs. You may use it for private study, scholarship, research or language learning purposes only