>
 >
Anchor End

Anchor End Guitar Tabs

A Wilhelm Scream - Anchor End chords, tabs, tablatures, lyrics

Guitar lessons | Add/correct | Request | Top 50 tabs Artists:  A B C D E F G H I J K L M N O P Q R S T U V W X Y Z 0-9

Anchor End Guitar Tabs – A Wilhelm Scream

CD, Sheet music, Poster

Do you like Anchor End? Share with your friends now
TabsTabs v2Tabs v3
01/15/2005

Parenthesis mean palm mute, ^ is a bend.
* means there is a 2nd guitar part that begins, it will be tabbed below.

Tuning = DADGBe
>>>>>>>>>>>>>>>>>>>>>>>>>>>>>>>>>>>>>>>>>>>>>>>>>>>>>>>>>>>>>>>>>>

Play this first line twice
e-------------------------------------------------------------------|
B----------------(8)------------------------------10h11p10--11------|
G--(10)---(7)-(8)---(8)-(7)---10--10h12p10--7h8p7--------------12---|
D------(8)-----------------(8)--------------------------------------|
A-------------------------------------------------------------------|
D-------------------------------------------------------------------|

e--------------------------------------------------------------|
B----------------(8)-------------------------------------------|
G--(10)---(7)-(8)---(8)-(7)------------------------------------|
D------(8)-----------------(8)--10--8--8-(88)-8-(88)-8-(88)-8--|
A--------------------------------------------------------------|
D--------------------------------------------------------------|

>>>>>>>>>>>>>>>>>>>>>>>>>>>>>>>>>>>>>>>>>>>>>>>>>>>>>>>>>>>>>>>>>>

This next part could be played by two guitars, (one playing the chords,
and the other playing higher notes) but I tabbed it as one guitar because
it's hard to distinguish between the two most of the time.
e--------------------------------------------------------------------------|
B--------------------------------------------------------------------------|
G--------------------------------------------------------------------------|
D--6-6-5-(8888)(10101010)(1313)(1212)-6-6-5-(8888)(10101010)(1313)(1212)---|
A--6-6-5------------------------------6-6-5--------------------------------|
D--6-6-5------------------------------6-6-5--------------------------------|

e-------------------------------------------------------------------|
B------------------------------------------------------6--------6---|
G--12--12--12--12--------7---8p7---7-----------------7--------7-----|
D----12--12--12--12--(88)-(8)----8----5555-(8888)--5--------5-------|
A-------------------------------------5555-(8888)---------6---------|
D-------------------------------------5555-(8888)-------------------|

>>>>>>>>>>>>>>>>>>>>>>>>>>>>>>>>>>>>>>>>>>>>>>>>>>>>>>>>>>>>>>>>>>

Riff #3
Play twice.
e----------------------------------------------------------------------|
B----------------------------------------------------------------------|
G-----888-(888)-888-(888)----------------------------------------------|
D-----888-(888)-888-(888)---555-(555)-555-(555)-----*333333---111111---|
A-----666-(666)-666-(666)---555-(555)-555-(555)-----*333333---111111---|
D---------------------------555-(555)-555-(555)-----*333333---111111---|

*Guitar #2
e----------------------------------------|
B----------------------------------------|
G-------7----8p7---7------7----8p7---7---|
D---(88)-(8)-----8----(88)-(8)-----8-----|
A----------------------------------------|
D----------------------------------------|

>>>>>>>>>>>>>>>>>>>>>>>>>>>>>>>>>>>>>>>>>>>>>>>>>>>>>>>>>>>>>>>>>>

Chorus- (the 13's are thirteen, not one-three)
Play Twice
e------------------------------------------------|
B------------------------------------------------|
G------------------------------------------------|
D---333333--555--888--131313131313131313131313---|
A---333333--555--888--131313131313131313131313---|
D---333333--555--888--131313131313131313131313---|

>>>>>>>>>>>>>>>>>>>>>>>>>>>>>>>>>>>>>>>>>>>>>>>>>>>>>>>>>>>>>>>>>>

e-----------------------------------------------------------------------|
B-----------------------------------------------------------------------|
G-----------------------------------------------------------------------|
D-665--(8888)(10101010)(1313)(1212)-665--(8888)(10101010)(1313)(1212)---|
A-665-------------------------------665---------------------------------|
D-665-------------------------------665---------------------------------|

e--------------------------------------------------------|
B--------------------------------------------------------|
G--12--12--12--12--------7----8p7---7--------------------|
D----12--12--12--12--(88)-(8)-----8------5555--(8888)----|
A----------------------------------------5555--(8888)----|
D----------------------------------------5555--(8888)----|

>>>>>>>>>>>>>>>>>>>>>>>>>>>>>>>>>>>>>>>>>>>>>>>>>>>>>>>>>>>>>>>>>>

The song then repeats Riff #3 and the Chorus, before moving on to this.

Play 12 Times, palm mute first 6 times
e-----------------------------------------------|
B-----------------------------------------------|
G--------------------------------10-------------|
D----12-10-12--12-10-12--12-10-12--12-10-12-----|
A--13--------13--------13-----------------------|
D-----------------------------------------------|

>>>>>>>>>>>>>>>>>>>>>>>>>>>>>>>>>>>>>>>>>>>>>>>>>>>>>>>>>>>>>>>>>>

Play Twice
e-------------------------------------------------------------------------|
B-------------------------------------------------------------------------|
G-------------------------------------------------------------------------|
D--5555555555555555--3333333333333333--11111111111111111111111111111111---|
A--5555555555555555--3333333333333333--11111111111111111111111111111111---|
D--5555555555555555--3333333333333333--11111111111111111111111111111111---|

>>>>>>>>>>>>>>>>>>>>>>>>>>>>>>>>>>>>>>>>>>>>>>>>>>>>>>>>>>>>>>>>>>


e-----------------------------------------------|
B-----------------------------------------------|
G-------------------7777---7777---7777---7777---|
D---1---3---1---3---8888---8888---8888---8888---|
A---1---3---1---3---6666---6666---6666---6666---|
D---1---3---1---3-------------------------------|

Once again, 13 = thirteen
e---------------------------------------------------------------------|
B---------------------------------------------------------------------|
G---------------------------------------------------------------------|
D-333333-555-888-131313131313-12^^-333333-555-888-131313131313-12^^---|
A-333333-555-888-131313131313------333333-555-888-131313131313--------|
D-333333-555-888-131313131313------333333-555-888-131313131313--------|


e--------------------------------------------------------------------------|
B--------------------------------------------------------------------------|
G--------------------------------------------------------------------------|
D--55555555-33333333-1111111111111111-55555555-33333333-1111111111111111---|
A--55555555-33333333-1111111111111111-55555555-33333333-1111111111111111---|
D--55555555-33333333-1111111111111111-55555555-33333333-1111111111111111---|


e--------------------------------------------------------------|
B-----------(8)----------------(8)----------------(8)----------|
G-(10)-(7)(8)-(8)(7)-(10)-(7)(8)-(8)(7)-(10)-(7)(8)-(8)(7)-----|
D----(8)-----------(8)--(8)-----------(8)--(8)-----------(8)---|
A--------------------------------------------------------------|
D--------------------------------------------------------------|

This part isn't exactly right, but it sounds like two guitars playing almost the same 
this is the best I could do.
e---------------------------------------------------------------|
B------------(8)-----------------11^----------------------------|
G--(10)-(7)(8)-(8)(7)--8^-7^---------10^8---12-10-8-7-5-7-------|
D-----(8)---------------------8^--------------------------------|
A---------------------------------------------------------------|
D---------------------------------------------------------------|


e------------------------------------------------------------------------|
B------------------------------------------------------------------------|
G------------------------------------------------------------------------|
D--1111111111111111-3333333333333333-1111111111111111-3333333333333333---|
A--1111111111111111-3333333333333333-1111111111111111-3333333333333333---|
D--1111111111111111-3333333333333333-1111111111111111-3333333333333333---|


e---------------|
B---------------|
G---------------|
D---5-(55)-5----|
A---5-(55)-5----|
D---5-(55)-5----|

>>>>>>>>>>>>>>>>>>>>>>>>>>>>>>>>>>>>>>>>>>>>>>>>>>>>>>>>>>>>>>>>>>





Comments


Popular A Wilhelm Scream tabs & chords
Our Ghosts Bass Tabs
These Dead Streets Bass Tabs
Anchor End 1 Tabs
Famous Friends And Fashion Drunks 1 Tabs
Mercy Day For Mr. Vengeance Tabs
Rip 1 Tabs
Rip 2 Tabs
Stab Stab Stab Tabs
They Like Their Turtlenecks Ribbed Tabs
William Blake Overdrive Tabs


Song lyrics



↑ Back to top | Tablatures and chords are parodies/interpretations of the original songs. You may use it for private study, scholarship, research or language learning purposes only
© 2014 AZChords.com Contact us | Privacy policy | DMCA | Add/correct tabs | Request tabs | Top 50 tabs