>
 >
5 To 9

5 To 9 Guitar Tabs

A Wilhelm Scream - 5 To 9 chords, tabs, tablatures, lyrics

Guitar lessons | Add/correct | Request | Top 50 tabs Artists:  A B C D E F G H I J K L M N O P Q R S T U V W X Y Z 0-9

5 To 9 Guitar Tabs – A Wilhelm Scream

CD, Sheet music, Poster

Do you like 5 To 9? Share with your friends now
Tabs


Tuning:Drop D

Enjoy a tab for a great song.

P=Pull off
H= Hameron
* = Palm Mute
x= Muted strings
~ =  hold note
V= Vibrato
/ = slide

Intro

e|---------------------------------------------------------------------------|
B|---------------------------------------------------------------------------|
G|---------------------------------------------------------------------------|
D|---------------------------------------------------------------------------|
A|----7---7~----7-------7---7~-8-7-5-7-5-3------7---7~----7-------7---7-875235-|
D|7777-777--7777-7b-7777-777---8-7-5-7-5-3--7777-777--7777--7b7777-777--875235-|

e|--------------------------------------|
B|--------------------------------------|
G|---4-4p2p0--4-4p2p0--4-4p2p0----------| Twice
D|--------------------------------------|
A|-2--------2---------2--------2-5-5----|
D|-2--------2---------2--------2-5-5----|

e|-------------| |----------------------------------------|
B|---3-----3-3-| |----------------------------------------|
G|--4-4---2---2| |--4-4p2p0--4-4p2p0--4-4p2p0-------------|
D|-5---5-2--2--| |----------------------------------------| Do Twice
A|-------------| |-2--------2--------2--------2--5--5-----|
D|-------------| |-2--------2--------2--------2--5--5-----|

                        ********
e|------0-----0------0-------------------|
B|------3-----3------3-------------------|
G|---------------------------------------|
D|-5b-x---5b-x---5b-x-----------5--------|
A|-6b-x---6b-x---6b-x---3205375-7--------|
D|----------------------3205375----------|

Verse 1:

"This Grin is s*** Eating......"

e|--------------------------------------------|
B|--------------------------------------------|
G|--------------------------------------------|
D|-999999999999999-------------777------------| Times 2
A|-777777777777777--101010-777-555-333--------|
d|------------------101010-777-----333--------|

                   ***     ***     ** 
e|----------------------------------------------|
B|----------------------------------------------|
G|----------------------------------------------|
D|-555555-99-777--------------------------------|
A|-333333-77-555-2-222-0-2-----875-222----------|
E|---------------2-222-0-2-000-875-222----------|

Chorus: 
"I've strangled necks for ages...."

e|----------------------------------------------------------------------|
B|----------------------------------------------------------------------|
G|---------------------------------------------------7-4-0--7-4-0-------|
D|-444-444-444-444------------------9---9---9---9-----------------------|
A|-222-222-222-222-777-977-977-977-5-7-5-7-5-7-5-7----------------------|
D|-----------------777-777-777-777-555-555-555-555--7------7------------|

e|------------------------------------------------------------------------|
B|------------------------------------------------------------------------|
G|------------------------------------------------------------------------|
D|-444-444-444-444------------------9---9---9---9----------55-4-----------|
A|-222-222-222-222-777-977-977-977-5-7-5-7-5-7-5-7--222222-33-275-2-2-2-2-|
D|-----------------777-777-777-777-555-555-555-555--222222-----75-2-2-2-2-|

e|-------------------------------|
B|-----12---121215151212---------|
G|-/14---14-------------14V------|
D|-------------------------------|
A|-------------------------------|
E|-------------------------------|

Verse 2

"It was the weight of a....."

e|--------------------------------------------|
B|--------------------------------------------|
G|--------------------------------------------|
D|-999999999999999-------------777------------| 
A|-777777777777777--101010-777-555-333--------|
d|------------------101010-777-----333--------|

e|-------------------------------------------|
B|-------------------------------------------|
G|-------------------------------------------|
D|------9-8-7----------------777-------------|
A|-9-8-7-----9-8--101010-777-555-333---------|
E|----------------101010-777-----333---------|

e|------------------------------------------------------------------------|
B|------------------------------------------------------------------------|
G|---------------------------44444-77777----------------------------------|
D|-55555-99999-55555-999-777-22222-55555-55555-55555-------------555555555|
A|-33333-77777-33333-777-555-22222-55555-33333-33333-222222555555333333333|
E|---------------------------22222-55555-------------222222555555---------|


e|-------------------------------------------------------------------------|
B|-------------------------------------------------------------------------|
G|-4-2-2---------4-4p2p0--4-4p2p0--4-4p2p0------4-4p2p0-4-4p2p0-4-4p2p0----|
D|----5-5-4-0-2------------------------------------------------------------|
A|--------------2--------2--------2--------2-5-2-------2-------2-------2-5-|
E|--------------2--------2--------2--------2-5-2-------2-------2-------2-5-|

e|---------------------0~-------------------|
B|---3-----3-3---------0~-------------------|
G|--4-4---2---2--------0~-------------------|
D|-5---5-2--2-----5----7~-------------------|
A|--------------/7-7-5-5~-------------------|
E|------------------------------------------|

e|---------------------------------------------------------------------|
B|-8p5----10-7---12-9-----15-------------------------------------------|
G|----5/7----7/9-----9/11---14-12-11~---0-0-0-0------------------------|
D|-------------------------------------7-5-4-0----------7/9-7/5-4/2----|
A|----------------------------------------------5555555----------------|
E|----------------------------------------------5555555----------------|

Chorus

"I've strangled Necks......"

e|----------------------------------------------------------------------|
B|----------------------------------------------------------------------|
G|---------------------------------------------------7-4-0--7-4-0-------|
D|-444-444-444-444------------------9---9---9---9-----------------------|
A|-222-222-222-222-777-977-977-977-5-7-5-7-5-7-5-7----------------------|
D|-----------------777-777-777-777-555-555-555-555--7------7------------|

e|-------------------------------------------------------------------------|
B|-------------------------------------------------------------------------|
G|----------------------------------------------------------222-222-222-2--|
D|-444-444-444-444------------------------------------------222-222-222-2--|
A|-222-222-222-222-777-777-777-777-555-555-555-555--222222--000-000-000-0--|
D|-----------------777-777-777-777-555-555-555-555--222222---------------5b|

"i wont be failed any more"
e|-------------------------------------------------------------------------|
B|-------------------------------------------------------------------------|
G|--------------------------------------------------------2-2h4p2----------|
D|----5-7-----5-7-----5-7-555-2-22----5-7-----5-7-----5-7--------54247-9-9-|
A|-22-3-5-222-3-5-222-3-5-333-0-00-22-3-5-222-3-5-222-3-5------------5-7-7-|
D|-22-----222-----222--------------22-----222-----222----------------------|

e|----------------------------------------------------------------|
B|----------------------------------------------------------------|
G|-----------------------------------------------9----------------|
D|---------------------------------------------7---7--------------|
A|-----7----6----5----5-75-----7----8----10------------10-10-7----|
E|-7777-6666-5555-5555-----7777-7777-7777--7777--------10-10-7----|
  
   *********
e|------------------------------------------------------------------|
B|---------------------------8-8~-----------------------------------|
G|---------------------------7-7~-------4p2p0-----------------------|
D|---------------------------9-9~------------2----------------------|
A|-888101010--5-35-35-57-57--7-7~-----------------------------------|
E|-888101010--5-35-35-57-57-----------------------------------------|





Comments


Popular A Wilhelm Scream tabs & chords
Anchor End 1 Tabs
Congratulations Tabs
Hike Tabs
Jaws 3, People 0 Tabs
Killing It Tabs
Mercy Day For Mr. Vengeance Tabs
Rip Tabs
Rip (Intro) Tabs
Rip 2 Tabs
The King Is Dead Tabs


Song lyrics



↑ Back to top | Tablatures and chords are parodies/interpretations of the original songs. You may use it for private study, scholarship, research or language learning purposes only
© 2014 AZChords.com Contact us | Privacy policy | DMCA | Add/correct tabs | Request tabs | Top 50 tabs