» » »

Avril Lavigne, What The Hell Bass tabs (ver.3)

Artists:  A B C D E F G H I J K L M N O P Q R S T U V W X Y Z # 

What The Hell Bass tabs (ver.3)

Avril Lavigne Tabs
 Rating:
4/5 (4 votes)
What The Hell lessons Tabs too difficult? Try these video lessons and learn fast
                Avril Lavigne
What The Hell
Goodbye Lullaby
2011 RCA Records

Key: A

Tuning: Drop D


Intro: Idle

Verse 1: Idle


Refrain: You're on your knees begging please stay with me
             A                           D
G|-------------------------|----------14-14-11-11-11-|
D|----------14-14-11-11-11-|-12-12-12----------------|
A|-12-12-12----------------|-------------------------|
D|-------------------------|-------------------------|

                 F#m
G|-11-11-11-11-11-11-11-11-11-11-11-|
D|----------------------------------|
A|----------------------------------|
D|----------------------------------|

        D
G|-------------|
D|-12-12-12-12-|
A|-------------|
D|-------------|


But honestly I just need to be a little crazy
             A                           D
G|-------------------------|----------14-14-11-11-11-|
D|----------14-14-11-11-11-|-12-12-12----------------|
A|-12-12-12----------------|-------------------------|
D|-------------------------|-------------------------|

                        F#m
G|-11-11-11-11-11-11-11-11-11-11-11-11-11-11-11-11-|
D|-------------------------------------------------|
A|-------------------------------------------------|
D|-------------------------------------------------|

      D
G|----------|
D|-12-12-12-|
A|----------|
D|----------|


Chorus: All my life I've been good... x4
           A                D
G|-----------------|-----------------|
D|-----------------|-----------------|
A|-----------------|-----------------|
D|-7-7-7-7-7-7-7-7-|-0-0-0-0-0-0-0-0-|

             F#m                D
G|-------------------------|---------|
D|-------------------------|---------|
A|-------------------------|---------|
D|-4-4-4-4-4-4-4-4-4-4-4-4-|-0-0-0-0-|


Verse 2: So what If I go out in million dates
       A         D               F#m             D
G|----------|----------|---------------------|---2-2-|
D|----------|----------|-4-4--2-4--4--2-4--4-|-0-----|
A|-0-0--0-0-|-5-5--5-5-|---------------------|-------|
D|----------|----------|---------------------|-------|

You never call or listen to me anyway
       A         D               F#m             D
G|----------|----------|---------------------|---2-2-|
D|----------|----------|-4-4--2-4--4--2-4--4-|-0-----|
A|-0-0--0-0-|-5-5--5-5-|---------------------|-------|
D|----------|----------|---------------------|-------|

I rather rage than sit around and wait all day
       A         D               F#m             D
G|----------|----------|---------------------|---2-2-|
D|----------|----------|-4-4--2-4--4--2-4--4-|-0-----|
A|-0-0--0-0-|-5-5--5-5-|---------------------|-------|
D|----------|----------|---------------------|-------|

Don't get me wrong, I just need a time to play
       A         D      F#m
G|----------|----------|---|
D|----------|----------|-4-|
A|-0-0--0-0-|-5-5--5-5-|---|
D|----------|----------|---|


Bridge:

You say better messing with your head
              A                     D
G|-------------------------|-----------------|
D|-------------------------|-----------------|
A|-12-12-12-12-12-12-12-12-|-5-5-5-5-5-5-5-5-|
D|-------------------------|-----------------|

             F#m                D
G|-------------------------|---------|
D|-------------------------|---------|
A|-------------------------|-5-5-5-5-|
D|-4-4-4-4-4-4-4-4-4-4-4-4-|---------|

              A                     D
G|-------------------------|-----------------|
D|-------------------------|-----------------|
A|-12-12-12-12-12-12-12-12-|-5-5-5-5-5-5-5-5-|
D|-------------------------|-----------------|

             F#m             D
G|-------------------------|---|
D|-------------------------|---|
A|-------------------------|-5-|
D|-4-4-4-4-4-4-4-4-4-4-4-4-|---|


Outro: Idle
            
Submit corrections

comments powered by Disqus
↑ Back to top | Avril Lavigne Bass for What The Hell. Lyrics for acoustic guitar and electric guitar. Tablatures and chords are parodies/interpretations of the original songs. You may use it for private study, scholarship, research or language learning purposes only