» » »

What The Hell Tabs (ver.1)

Artists:  A B C D E F G H I J K L M N O P Q R S T U V W X Y Z # 

What The Hell Tabs (ver.1)

Avril Lavigne
Rating:
0/5 (0 votes)

Hard to play? Try these video lessons and learn fast.
                
Its the same chords throughout the whole song. Just listen to the song to get
the right timing when to switch through the chords.

Verses

e|---------------------------|
B|---------------------------|
G|---------------------------|
D|---------7-------------7---|
A|--7------5------4------5---|
E|--5------x------2------x---|


Chorus

e|---------------------------|
B|---------------------------|
G|---------7-------------7---|
D|--7------7------4------7---|
A|--7------5------4------5---|
E|--5------x------2------x---|


// Note: The first 2 chords are played 8 times each except

e|------------|
B|------------|
G|------------|
D|---4--------|
A|---4--------|
E|---2--------|

which is played 12 times and the last

e|------------|
B|------------|
G|------------|
D|---5--------|
A|---5--------|
E|---x--------|

which is played 4 times
            
Hard to play? Try these video lessons and learn fast. | Correct




comments powered by Disqus
↑ Back to top | Tablatures and chords are parodies/interpretations of the original songs. You may use it for private study, scholarship, research or language learning purposes only