» » »

Avril Lavigne, Take It Tabs (ver.1)

Artists:  A B C D E F G H I J K L M N O P Q R S T U V W X Y Z # 

Take It Tabs (ver.1)

Avril Lavigne Tabs
 Rating:
4/5 (4 votes)
Take It lessons Tabs too difficult? Try these video lessons and learn fast
1
                Standard Tuning ( e A D G B E )

This is my first tab,i hope you like it ;)

Intro
e-----------------|-----------------|----------------|-----------------|
B-----------------|-----------------|----------------|-----------------|
G-----------------|-----------------|----------------|--------55-------|
D----55555555-----|----99999999-----|1010101010101010|--55----55-------|
A----55555555-----|----99999999-----|1010101010101010|--55----33-------|
E----33333333-----|----77777777-----|-8-8-8-8-8-8-8-8|--33-------------|

e-----------------|-----------------|----------------|-----------------|
B-----------------|-----------------|----------------|-----------------|
G-----------------|-----------------|----------------|--------44-------|
D----55555555-----|----99999999-----|1010101010101010|--55----44-------|
A----55555555-----|----99999999-----|1010101010101010|--55----22-------|
E----33333333-----|----77777777-----|-8-8-8-8-8-8-8-8|--33-------------|



Verse

e-----------------|-----------------|----------------|
B-----------------|-----------------|----------------|
G-----------------|-----------------|----------------|
D--------5--------|-------9--10-----|--x-7\5/7-------|     x 3
A--------5--------|-------9--10-----|--x-7\5/7-------|
E--------3--------|-------7---8-----|--x-5\3/5-------|
        P.M.               P.M.              


e-----------------|-----------------|
B-----------------|-----------------|
G-----------------|-----------------|
D--------5--------|-------9--10-----|
A--------5--------|-------9--10-----|
E--------3--------|-------7---8-----|
        P.M.               P.M.              


e-----------------|-----------------|----------------|-----------------|
B-----------------|-----------------|----------------|-----------------|
G-----------------|-----------------|----------------|--------555------|
D----55555555-----|----99999999-----|1010101010101010|--555---555------|
A----55555555-----|----99999999-----|1010101010101010|--555---333------|
E----33333333-----|----77777777-----|-8-8-8-8-8-8-8-8|--333------------|

e-----------------|-----------------|----------------|-----------------|
B-----------------|-----------------|----------------|-----------------|
G-----------------|-----------------|----------------|--------444------|
D----55555555-----|----99999999-----|1010101010101010|--555---444------|
A----55555555-----|----99999999-----|1010101010101010|--555---222------|
E----33333333-----|----77777777-----|-8-8-8-8-8-8-8-8|--333------------|


Chorus

e---------------------------------------|
B---------------------------------------|
G-------77---99---44--55--44---77777777-| x 2
D--55---77---99---44--55--44---77777777-|
A--55---55---77---22--33--22---55555555-|
E--33-----------------------------------|


e--------------------------------------|---------------------|----------------|
B--------------------------------------|---------------------|----------------|
G--------------------------------------|---------------------|----------------|
D----10 xxx-10-9-xxx-9-7-xxx-7-7-xxx-9-|-10-xxx-10-9-xxx-9-7-|----------------|
A----10-xxx-10-9-xxx-9-7-xxx-7-7-xxx-9-|-10-xxx-10-9-xxx-9-7-|----------------|
E-----8-xxx--8-7-xxx-7-5-xxx-5-5-xxx-7-|--8-xxx--8-7-xxx-7-5-|----8///////----|

Verse
Chorus

Bridge (You see me...)

e---------------------------------------|-------------|------------------|
B---------------------------------------|-------------|------------------|
G--------------------5--5-5--5--5-5---5-|---------5---|------------------|
D--5--5-5--5--5-5----5--5-5--5--5-5---5-|-5--5-5--5---|------------------|
A--5--5-5--5--5-5----3--3-3--3--3-3---3-|-5--5-5--3---|------------------|
E--3--3-3--3--3-3-----------------------|-3--3-3------|----8////////-----|
 ------------ P.M.------------------------------

Chorus x 4

End (Acoustic Guitar)

e--0--|--0--|--0--|
B--1--|--1--|--1--|
G--0--|--0--|--2--|
D--2--|--0--|--2--|
A--3--|--2--|--0--|
E-----|-----|-----|


Very easy to play!
            
Submit corrections

comments powered by Disqus
↑ Back to top | Avril Lavigne Tabs for Take It. Lyrics for acoustic guitar and electric guitar. 1 Tablatures and chords are parodies/interpretations of the original songs. You may use it for private study, scholarship, research or language learning purposes only