» » »

Smile Bass tabs (ver.1)

Artists:  A B C D E F G H I J K L M N O P Q R S T U V W X Y Z # 

Smile Bass tabs (ver.1)

Avril Lavigne
Rating:
0/5 (0 votes)

Tabs too difficult? Try these video lessons and learn fast.
                Avril Lavigne
Smile
Goodbye Lullaby
2011 RCA Records

Key: A

Tuning: Standard EADGBe

Verses 1: Idle

Refrain: You say hey
    F#m    E   A    F#m   E  F#m  A  C#m   E
G|-------|---|---|------|---|------|-----|---|
D|-4---4-|-2-|---|-4--4-|-2-|------|-----|-2-|
A|-------|---|-0-|------|---|-0--0-|-4---|---|
E|-------|---|---|------|---|------|-----|---|

hey since that day
    F#m    E   A    F#m   E    A
G|-------|---|---|------|---|------|
D|-4---4-|-2-|---|-4--4-|-2-|------|
A|-------|---|-0-|------|---|-0--0-|
E|-------|---|---|------|---|------|


Chorus 1: and that's why I smile, x3
          D                A
G|-----------------|-----------------|
D|-----------------|-----------------|
A|-5-5-5-5-5-5-5-5-|-----------------|
E|-----------------|-5-5-5-5-5-5-5-5-|

         F#m               E
G|-----------------|-----------------|
D|-----------------|-----------------|
A|-----------------|-----------------|
E|-2-2-2-2-2-2-2-2-|-0-0-0-0-0-0-0-0-|


Verse 2:
Last night I blacked out...
    F#m    E   A    F#m   E    A     C#m   E
G|-------|---|---|------|---|------|-----|---|
D|-------|---|---|-4--4-|-2-|------|-----|-2-|
A|-------|---|-0-|------|---|-0--0-|-4---|---|
E|-------|---|---|------|---|------|-----|---|

I woke up with a new tattoo..
    F#m    E   A    F#m   E    A     C#m   E
G|-------|---|---|------|---|------|-----|---|
D|-4---4-|-2-|---|-4--4-|-2-|------|-----|-2-|
A|-------|---|-0-|------|---|-0--0-|-4---|---|
E|-------|---|---|------|---|------|-----|---|


Chorus 2: and that's why I smile, x4
          D                A
G|-----------------|-----------------|
D|-----------------|-----------------|
A|-5-5-5-5-5-5-5-5-|-----------------|
E|-----------------|-5-5-5-5-5-5-5-5-|

          F#m              E
G|-----------------|-----------------|
D|-----------------|-----------------|
A|-----------------|-----------------|
E|-2-2-2-2-2-2-2-2-|-0-0-0-0-0-0-0-0-|
            
Tabs too difficult? Try these video lessons and learn fast.




comments powered by Disqus
↑ Back to top | Tablatures and chords are parodies/interpretations of the original songs. You may use it for private study, scholarship, research or language learning purposes only