» » »

Smile Tabs (ver.1)

Artists:  A B C D E F G H I J K L M N O P Q R S T U V W X Y Z # 

Smile Tabs (ver.1)

Avril Lavigne
Rating:
0/5 (0 votes)

Hard to play? Try these video lessons and learn fast.
                hi this Its My first time I do This so hope you can...desifrate it xD
the tab are 99% correct.

intro & verses:

E|-------------------------|
B|-------------------------|
G|-9-------9----7----------|
D|-9-------9----7----5-----|
A|-7-------7----5----5-----|
E|-------------------3-----| x 2


E|------------------------|
B|------------------------|
G|-----4---7----9---------|
D|-5---4---7----9---------|
A|-5---2---5----7---------|
E|-3----------------------|you do two of the other one and one of this one like two and this
two an this

1.Bridge:

E|-3---3---3---3--------|
B|-3---3---3---3--------|
G|---------2------------|
D|-2-----------2--------|
A|-3---2-------2--------|
E|-----3----------------|

E|-3---3---3---3--------|
B|-3---3---3---3--------|
G|-------------2--------|
D|-2-------2------------|
A|-3---2---2------------|
E|-----3----------------| x 2

and repeat *intro & verses*

2.Bridge

E|-3---3---3---3--------|
B|-3---3---3---3--------|
G|---------2------------|
D|-2-----------2--------|
A|-3---2-------2--------|
E|-----3----------------|

E|-3---3---3---3--------|
B|-3---3---3---3--------|
G|-------------2--------|
D|-2-------2------------|
A|-3---2---2------------|
E|-----3----------------| x 3

after the 2.bridge:
E|-3---3---3---3--------|
B|-3---3---3---3--------|
G|---------2------------|
D|-2-----------2--------|
A|-3---2-------2--------|
E|-----3----------------|

E|-3---3---3---3--------|
B|-3---3---3---3--------|
G|-------------2--------|
D|-2-------2------------|
A|-3---2---2------------|
E|-----3----------------|

last.Bridge

E|-3---3---3---3--------|
B|-3---3---3---3--------|
G|---------2------------|
D|-2-----------2--------|
A|-3---2-------2--------|
E|-----3----------------| x 1

E|-3---3---3---3--------|
B|-3---3---3---3--------|
G|-------------2--------|
D|-2-------2------------|
A|-3---2---2------------|
E|-----3----------------|x 5

and ends up in

E|-3-|
B|-3-|
G|---|
D|---|
A|-2-|
E|-3-|

hope you like it please leave a coment or send me an e-mail if you see any errors or you 
think something i can improve
thanx
            
Hard to play? Try these video lessons and learn fast. | Correct




comments powered by Disqus
↑ Back to top | Tablatures and chords are parodies/interpretations of the original songs. You may use it for private study, scholarship, research or language learning purposes only