» » »

Avril Lavigne, Sk8er Boi Tabs (ver.10)

Artists:  A B C D E F G H I J K L M N O P Q R S T U V W X Y Z # 

Sk8er Boi Tabs (ver.10)

Avril Lavigne Tabs
Rating:
0/5 (0 votes)
Sk8er Boi lessons Tabs too difficult? Try these video lessons and learn fast
                *INTRO*

e------------------------------------------------------------------------}
b------------------------------------------------------------------------}
g--5-5-5-5-5-5------------------4-4-4-4-4-4---3-3-3-3-3-3---2-2-2-2-2-2--}
d--5-5-5-5-5-5----5-5-5-5-5-5---4-4-4-4-4-4---3-3-3-3-3-3---2-2-2-2-2-2--}X2
a--7-7-7-7-7-7----5-5-5-5-5-5---2-2-2-2-2-2---1-1-1-1-1-1---0-0-0-0-0-0--}
E-----------------7-7-7-7-7-7--------------------------------------------}
(All open)

*VERSE*

e-------------------------------------------------------------------------}
b-------------------------------------------------------------------------}
g--5-5-5-5-5-5-5-5---------------------4-4-4-4-4-4-4-4---3-3-3-3-3-3-3-3--}
d--5-5-5-5-5-5-5-5---5-5-5-5-5-5-5-5---4-4-4-4-4-4-4-4---3-3-3-3-3-3-3-3--}
a--7-7-7-7-7-7-7-7---5-5-5-5-5-5-5-5---2-2-2-2-2-2-2-2---1-1-1-1-1-1-1-1--}
E--------------------7-7-7-7-7-7-7-7--------------------------------------}
PM * * * * * * * *   * * * * * * * *   * * * * * * * *   * * * * * * * *

e-------------------------------------------------------------------------}
b-------------------------------------------------------------------------}
g--5-5-5-5-5-5-5-5---------------------4-4-4-4-4-4-4-4---5-5-5-5-5-5-5-5--}
d--5-5-5-5-5-5-5-5---5-5-5-5-5-5-5-5---4-4-4-4-4-4-4-4---5-5-5-5-5-5-5-5--}
a--7-7-7-7-7-7-7-7---5-5-5-5-5-5-5-5---2-2-2-2-2-2-2-2---3-3-3-3-3-3-3-3--}
E--------------------7-7-7-7-7-7-7-7--------------------------------------}
Pm * * * * * * * *   * * * * * * * *   * * * * * * * *   * * * * * * 

*CHORUS* 

e-------------------------------------------------------------------------}
b-------------------------------------------------------------------------}
g--------------------5-5-5-5-5-5-5-5---3-3-3-3-3-3-3-3---2-2-2-2-2-2-2-2--}X2
d--3-3-3-3-3-3-3-3---5-5-5-5-5-5-5-5---3-3-3-3-3-3-3-3---2-2-2-2-2-2-2-2--}
a--3-3-3-3-3-3-3-3---3-3-3-3-3-3-3-3---1-1-1-1-1-1-1-1---0-0-0-0-0-0-0-0--}
E--1-1-1-1-1-1-1-1--------------------------------------------------------}


*REPEAT VERSE*


*REPEAT CHORUS*


*INTERLUDE*


e-------------------------------------------------------------------------}
b--8h10-10p8--8h10-10p8-8h10-10p8-8h10-10p8-8h10-10p8-8h10-10p8-----------}
g-------------------------------------------------------------------------}
d-------------------------------------------------------------------------}
a-------------------------------------------------------------------------}
E-------------------------------------------------------------------------}


*BRIDGE*

e--------------------------------------------------------------------------}
b--------------------------------------------------------------------------}
g--5-------------3-----2-----5---------------------------------------------}
d--5-X16--3------3-X16-2-X16-5-X16--------------------------------------X2-}
a--7------3-X16--1-----0-----7---------------------------------------------}
E---------1----------------------------------------------------------------}


*REPEAT VERSE*


*REPEAT CHORUS*

End
            
Submit corrections

comments powered by Disqus
↑ Back to top | Avril Lavigne Tabs for Sk8er Boi. Lyrics for acoustic guitar and electric guitar. Tablatures and chords are parodies/interpretations of the original songs. You may use it for private study, scholarship, research or language learning purposes only