» » »

Sk8er Boi Tabs (ver.8)

Artists:  A B C D E F G H I J K L M N O P Q R S T U V W X Y Z # 

Sk8er Boi Tabs (ver.8)

Avril Lavigne
Rating:
0/5 (0 votes)

Hard to play? Try these video lessons and learn fast.
                Hey everyone. This tab is in Drop D, but it can be played in
standard tuning. So please don't give me cr*p because I tabbed
it in Drop D. If you want to play it in standard go ahead.

\= slide
Intro
Gtr. 1

e-----|----------------------------------------------
B-----|----------------------------------------------
G-----|--7-------------------------------------------
D--7\-|--7-(x8)-7-------9-------8--------------------
A--7\-|--5------7--(x8)-9--(x8)-8--(x8)--------------
D--7\-|---------7-------9-------8--------------------

Gtr. 2 

e---------------------------------------------------
B---------------------------------------------------
G-----------11\--9---------11\--9----7--------------
D-----------x----x--(x3)---x----x----x--------------
A-----------9\---7---------9\---7----5--------------
D---------------------------------------------------

Verse
Gtr. 1
pm~~~~~~~~~~~~~~~~~~~~~~~~~~~~~~~~~~~~~~~~~~~
                               1 and 3   2 and 4
e-----------------------------|-------|-------------
B-----------------------------|-------|-------------
G--7--------------------------|-------|-------------
D--7--(x8)-7---------9--------|8------|--10---------
A--5-------7--(x8)---9--(x8)--|8--(x8)|--10--(x8)---
D----------7---------9--------|8------|--10---------

Chorus 
Gtr. 1
                         end chorus on this chord 
e---------------------------------------|------------
B---------------------------------------|------------
G---10----------------------------------|------------
D---10--(x8)-10-------8-------7---------|---8--------
A---8--------10--(x8)-8--(x8)-7--(x8)---|---8--------
D------------10-------8-------7---------|---8--------

Verse

Chorus

Interlude
It's basically the same as the chorus only
there's a Db5 chord instead of a Bb chord. And a 
different lead.

Gtr. 1

e---------------------------------------|--------------
B---------------------------------------|--------------
G---10----------------------------------|--------------
D---10--(x8)-10-------8-------11--------|--11------7\---
A---8--------10--(x8)-8--(x8)-11-(x4)---|--11------7\---
D------------10-------8-------11--------|--11-(x2)-7\---

Gtr. 2 

e---------------------------------------------------
B---------------------------------------------------
G-----------14\--12---------------------------------
D-----------x----x--(x3)----------------------------
A-----------12\--10---------------------------------
D---------------------------------------------------

Bridge
Gtr. 1

pm~~~~~~~~~~~~~~~~~~~~~~~~~~~~~~~~~~~~~~~~~~~~~~~~
e---------------------------------------------------
B---------------------------------------------------
G-----------------------5--------3--------2---------
D---0---------3---------5-(x16)--3--(x8)--2---(x8)--
A---0--(x16)--3--(x16)--3--------1--------0---------
D---0---------3-------------------------------------

Do the Intro and end it on C5 and go right into the chorus.
At the end, slide down from Bb5 and just hit individual notes.

Well thats it. I'm 92 2/3% sure this is right. I'm surprised I'm tabbing
an Avril Lavigne song, if you have any corrections please use the system
some stupid cr*p like "This is wrong!" and give me a correction that's just
in standard tuning. That just makes you look stupid. But anyways, see ya round.
-Rich Coleman
            
Hard to play? Try these video lessons and learn fast. | Correct




comments powered by Disqus
↑ Back to top | Tablatures and chords are parodies/interpretations of the original songs. You may use it for private study, scholarship, research or language learning purposes only