» » »

Avril Lavigne, Not The Only One Bass tabs (ver.1)

Artists:  A B C D E F G H I J K L M N O P Q R S T U V W X Y Z # 

Not The Only One Bass tabs (ver.1)

Avril Lavigne Tabs
 Rating:
4/5 (4 votes)
Not The Only One lessons Tabs too difficult? Try these video lessons and learn fast
                Avril Lavigne
Not The Only One
2001 Bsides

Bass Tab

Key: A

Tuning: Drop D


Intro:
G|---------------------------------|
D|---------------------------------|
A|-9-9-9-9-4-4-4-4-5-5-5-5-8-8-8-8-| (x2)
D|---------------------------------|


Verses:
G|---------------------------------|
D|---------------------------------|
A|-9-9-9-9-4-4-4-4-5-5-5-5-8-8-8-8-| (x4)
D|---------------------------------|


Chorus:
G|---------------------------------|
D|---------------------------------|
A|---------------------------------| (x4)
D|-7-7-7-7-2-2-2-2-0-0-0-0-2-2-6-6-|


There's other fishes in the sea...
G|---------------------------------|
D|---------------------------------|
A|-9-9-9-9-4-4-4-4-5-5-5-5-8-8-8-8-| (x2)
D|---------------------------------|


at time 2:09, There's other fishes in the sea...
G|--------------------------|
D|--------------------------|
A|-----0-2-0-4--4-5-4-2-0-2-| (x2)
D|-2-4----------------------|
            
Submit corrections

comments powered by Disqus
↑ Back to top | Avril Lavigne Bass for Not The Only One. Lyrics for acoustic guitar and electric guitar. Tablatures and chords are parodies/interpretations of the original songs. You may use it for private study, scholarship, research or language learning purposes only