» » »

Avril Lavigne, Nobody's Home Tabs (ver.5)

Artists:  A B C D E F G H I J K L M N O P Q R S T U V W X Y Z # 

Nobody's Home Tabs (ver.5)

Avril Lavigne Tabs
 Rating:
4/5 (4 votes)
Nobody's Home lessons Tabs too difficult? Try these video lessons and learn fast
                "Standard

0:01 Guitar 1:

E||-5~--5~--5~--5~-|
B||----------------|
G||----------------|
D||----------------|
A||----------------|
E||----------------|

0:09 Guitar 2:

    Fm        D#2         C#maj7     C#
E||---------1---------1--------------------------|
B||-----1---------4---------------1----------2~1-|
G||---1---1-----3---3---------1----------1-------|
D||-------------------------3---3------3---3-----|
A||-----------------------4----------4-----------|
E||-1---------1----------------------------------|

0:20 Verse 1:

Guitar 1:    Fm   D#2   C#maj7  x2

Guitar 2:
E||---------1-| Let Ring For a Bar |-----------| Let Ring For a Bar
B||-----1-----| Let Ring For a Bar |---------1-| Let Ring For a Bar
G||---1---1---| Let Ring For a Bar |-----1-----| Let Ring For a Bar
D||-----------| Let Ring For a Bar |---3---3---| Let Ring For a Bar
A||-----------| Let Ring For a Bar |-4---------| Let Ring For a Bar
E||-1---------| Let Ring For a Bar |-----------| Let Ring For a Bar

E||---------1-| Let Ring For a Bar |-------------------------|
B||-----1-----| Let Ring For a Bar |---------1---------2~-1--|
G||---1---1---| Let Ring For a Bar |-----1---------1---------|
D||-----------| Let Ring For a Bar |---3---3-----3---3-------|
A||-----------| Let Ring For a Bar |-4---------4-------------|
E||-1---------| Let Ring For a Bar |-------------------------|

0:41 Pre-Chorus:

Guitar 1:    Fm   D#2   C#maj7

Guitar 2:
E||---------1---------1----------------------|
B||-----1---------4--------------1---------1-|
G||---1---1-----3---3--------1---------1-----|
D||------------------------3---3-----3---3---|
A||----------------------4---------4---------|
E||-1---------1------------------------------|

0:50 Chorus:

Guitar 1:    Fm   G#   D#5   D#  x2

Guitar 2:
E||-------------------------------------------------------------------|
B||---------------------------------------------------8-8-8-8-8-8-8-8-|
G||-----------------------------------8-8-8-8-8-8-8-8-8-8-8-8-8-8-8-8-|
D||-3-3-3-3-3-3-3-3-/-6-6-6-6-6-6-6-6-x-x-x-x-x-x-x-x-x-x-x-x-x-x-x-x-|
A||-x-x-x-x-x-x-x-x-/-x-x-x-x-x-x-x-x-6-6-6-6-6-6-6-6-6-6-6-6-6-6-6-6-|
E||-1-1-1-1-1-1-1-1-/-4-4-4-4-4-4-4-4---------------------------------|

E||-------------------------------------------------------------------|
B||---------------------------------------------------9-9-9-9-8-8-8-8-|
G||-----------------------------------8-8-8-8-8-8-8-8-8-8-8-8-8-8-8-8-|
D||-3-3-3-3-3-3-3-3-/-6-6-6-6-6-6-6-6-x-x-x-x-x-x-x-x-6-6-6-6-6-6-6-6-|
A||-x-x-x-x-x-x-x-x-/-x-x-x-x-x-x-x-x-6-6-6-6-6-6-6-6-----------------|
E||-1-1-1-1-1-1-1-1-/-4-4-4-4-4-4-4-4---------------------------------|

1:12 Verse 2:

Guitar 1:    Fm   D#2   C#maj7   C#   x2

Guitar 2:
E||---------1-| Let Ring For a Bar |-----------| Let Ring For a Bar
B||-----1-----| Let Ring For a Bar |---------1-| Let Ring For a Bar
G||---1---1---| Let Ring For a Bar |-----1-----| Let Ring For a Bar
D||-----------| Let Ring For a Bar |---3---3---| Let Ring For a Bar
A||-----------| Let Ring For a Bar |-4---------| Let Ring For a Bar
E||-1---------| Let Ring For a Bar |-----------| Let Ring For a Bar

E||---------1-| Let Ring For a Bar |-------------------------|
B||-----1-----| Let Ring For a Bar |---------1---------2~-1--|
G||---1---1---| Let Ring For a Bar |-----1---------1---------|
D||-----------| Let Ring For a Bar |---3---3-----3---3-------|
A||-----------| Let Ring For a Bar |-4---------4-------------|
E||-1---------| Let Ring For a Bar |-------------------------|

1:32 Pre-Chorus:

Guitar 1:    Fm   D#2   C#maj7

Guitar 2:
E||---------1---------1----------------------|
B||-----1---------4--------------1---------1-|
G||---1---1-----3---3--------1---------1-----|
D||------------------------3---3-----3---3---|
A||----------------------4---------4---------|
E||-1---------1------------------------------|

1:42 Chorus:

Guitar 1:    Fm   G#   D#5   D#  x2

Guitar 2:
E||-------------------------------------------------------------------|
B||---------------------------------------------------8-8-8-8-8-8-8-8-|
G||-----------------------------------8-8-8-8-8-8-8-8-8-8-8-8-8-8-8-8-|
D||-3-3-3-3-3-3-3-3-/-6-6-6-6-6-6-6-6-x-x-x-x-x-x-x-x-x-x-x-x-x-x-x-x-|
A||-x-x-x-x-x-x-x-x-/-x-x-x-x-x-x-x-x-6-6-6-6-6-6-6-6-6-6-6-6-6-6-6-6-|
E||-1-1-1-1-1-1-1-1-/-4-4-4-4-4-4-4-4---------------------------------|

E||-------------------------------------------------------------------|
B||-------------------------------------------------------------------|
G||-----------------------------------8-8-8-8-8-8-8-8-8-8-8-8-8-8-8-8-|
D||-3-3-3-3-3-3-3-3-/-6-6-6-6-6-6-6-6-x-x-x-x-x-x-x-x-x-x-x-x-x-x-x-x-|
A||-x-x-x-x-x-x-x-x-/-x-x-x-x-x-x-x-x-6-6-6-6-6-6-6-6-6-6-6-6-6-6-6-6-|
E||-1-1-1-1-1-1-1-1-/-4-4-4-4-4-4-4-4---------------------------------|

E||---------------------------------|
B||---------------------------------|
G||-8-8-8-8-8-8-8-8-8-8-8-8-8-8-8-8-|
D||-x-x-x-x-x-x-x-x-x-x-x-x-x-x-x-x-|
A||-6-6-6-6-6-6-6-6-6-6-6-6-6-6-6-6-|
E||---------------------------------|

2:05 Bridge:
Guitar 1:    Fm   D#   C#maj7   x2

Guitar 2:
E||-------------------------------------------------------------------|
B||---------------------------------------------------8-8-8-8-8-8-8-8-|
G||-----------------------------------8-8-8-8-8-8-8-8-8-8-8-8-8-8-8-8-|
D||-3-3-3-3-3-3-3-3-/-6-6-6-6-6-6-6-6-x-x-x-x-x-x-x-x-x-x-x-x-x-x-x-x-|
A||-x-x-x-x-x-x-x-x-/-x-x-x-x-x-x-x-x-6-6-6-6-6-6-6-6-6-6-6-6-6-6-6-6-|
E||-1-1-1-1-1-1-1-1-/-4-4-4-4-4-4-4-4---------------------------------|

2:31 Chorus:

Guitar 1:    Fm   G#   D#5   D#  x2

Guitar 2:
E||--------------------------------------------------|
B||-13~13~13~13~13~13~13~13~13~13~13~13~13~13~13~13~-|
G||--------------------------------------------------|
D||--------------------------------------------------|
A||--------------------------------------------------|
E||--------------------------------------------------|

E||--------------------------------------------------|
B||-11~11~11~11~11~11~11~11~11~11~11~11~11~11~11~11~-|
G||--------------------------------------------------|
D||--------------------------------------------------|
A||--------------------------------------------------|
E||--------------------------------------------------|

2:52 Outro:

Guitar 1:   Fm   G#   D#5 x2 Then end on Fm

Guitar 2:
E||---------------------------------------------------------|
B||-13~13~13~13~13~13~13~13~13~13~13~13~13~13~13~13~--------|
G||---------------------------------------------------------|
D||---------------------------------------------------------|
A||---------------------------------------------------------|
E||---------------------------------------------------------|

E||---------------------------------------------------------|
B||-11~11~11~11~11~11~11~11~11~11~11~11~11~11~11~11~-13~~~~-|
G||---------------------------------------------------------|
D||---------------------------------------------------------|
A||---------------------------------------------------------|
E||---------------------------------------------------------|
"            
Submit corrections

comments powered by Disqus
↑ Back to top | Avril Lavigne Tabs for Nobody's Home. Lyrics for acoustic guitar and electric guitar. Tablatures and chords are parodies/interpretations of the original songs. You may use it for private study, scholarship, research or language learning purposes only