>
 >
Nobodys Home 1

Nobodys Home 1 Guitar Tabs

Avril Lavigne - Nobodys Home 1 chords, tabs, tablatures, lyrics

Guitar lessons | Add/correct | Request | Top 50 tabs Artists:  A B C D E F G H I J K L M N O P Q R S T U V W X Y Z 0-9

Nobodys Home 1 Guitar Tabs – Avril Lavigne

CD, Sheet music, Poster

Do you like Nobodys Home 1? Share with your friends now
Bass TabsChordsChords v2TabsTabs v2Tabs v3Tabs v4Tabs v5UkuleleUkulele v2
Avril Lavigne - Nobody's Home
Album      : Under My Skin, 2004.
Written by : Avril Lavigne
Music by   : Avril Lavigne & Ben Moody
|====================================================|
I saw many tabs for this nice song, but most of them
was done by capo or other than standard E tuning... So I made
this tab to play it normally on any guitar. Whats up with that 
capo stuff? Don't you guys know how to play guitar!?

Standard E tuning
Fm -  133111
D# -  x68886
C# -  x46664
G# -  466544


Intro (slightly distorted guitar in the background....)
e--1~~----------|-1~--------------|-1~----------|-1~------------|
H---------------|-----------------|-------------|---------------|
G---------------|-----------------|-------------|---------------|
D---------------|-----------------|-------------|---------------|
A---------------|-----------------|-------------|---------------|
E---------------|-----------------|-------------|---------------|

Intro (distorted guitar)
  Fm              D#                C#             C#
e------------1--|-----------------|-------------|---------------|
H--------1------|-------------8---|----------6--|----------6--6-|
G------1---1----|-------10--------|------8------|------8--------|
D----3----------|----10----10-----|----8---8----|----8---8------|
A---------------|--8--------------|--6----------|--6------------|
E---------------|-----------------|-------------|---------------|


Verse:
(Fill in)
  Fm              D#                C#             C#
e------------1--|-----------------|-------------|---------------|
H--------1------|-----------------|----------6--|----------6--6-|
G------1---1----|-----------------|------8------|------8--------|
D----3----------|-----------------|----8---8----|----8---8------|
A---------------|-----------------|--6----------|--6------------|
E---------------|-----------------|-------------|---------------|

Fm          D#                C#
I couldn't tell you why she felt that way,  She felt it everyday.
Fm             D#               C#
And I couldn't help her, I just watched her make the same mistakes again.



PreChorus:
 
Fm
What's wrong, what's wrong now?
D# 
Too many, too many problems.
C#                            
Don't know where she belongs, where she belongs.

Chorus: 
Distorted guitar.... follow the rythm of the song.
e---------------|-----------------|-------------|---------------|
H---------------|-----------------|-------------|---------------|
G---------------|-----------------|--10---------|--10-----------|
D--3------------|--6--------------|--10---------|--10-----------|
A--3------------|--6--------------|--8----------|--8------------|
E--1------------|--4--------------|-------------|---------------|

Fm               G#                 D# 
She wants to go home, but nobody's home. 
D#
It's Where she lies, broken inside.
Fm                   G#               D# 
There's no place to go, no place to go to dry her eyes. 
Broken inside. 


Verse:
(Fill in)
  Fm              D#                C#             C#
e------------1--|-----------------|-------------|---------------|
H--------1------|-----------------|----------6--|----------6--6-|
G------1---1----|-----------------|------8------|------8--------|
D----3----------|-----------------|----8---8----|----8---8------|
A---------------|-----------------|--6----------|--6------------|
E---------------|-----------------|-------------|---------------|

Fm        D#       C# 
Open your eyes and look outside, find a reason why. 
Fm          D#        C#
You've been rejected, and now you can't find what you left behind. 

PreChorus:
Fm  
Be strong, be strong now. 
D#
Too many, too many problems. 
C#
dont know where she belongs, where she belongs. 

Chorus:
Distorted guitar.... follow the rythm of the song.
e---------------|-----------------|-------------|---------------|
H---------------|-----------------|-------------|---------------|
G---------------|-----------------|--10---------|--10-----------|
D--3------------|--6--------------|--10---------|--10-----------|
A--3------------|--6--------------|--8----------|--8------------|
E--1------------|--4--------------|-------------|---------------|

Fm              G#                 D#
She wants to go home, but nobody's home. 
D#
It's where she lies, broken inside. 
Fm               G#              D#
With no place to go, no place to go to dry her eyes. 
D#
Broken inside. 

Bridge:
(Distorted guitar in background) 
 Fm               D#                C#            C#
e----1-1-......-|----1-1-........-|---1-1-.....-|----1-1-......-|
H--1------------|--1--------------|-1-----------|--1------------|
G---------------|-----------------|-------------|---------------|
D---------------|-----------------|-------------|---------------|
A---------------|-----------------|-------------|---------------|
E---------------|-----------------|-------------|---------------|

[Suggestion: if you want you can play with SLIDE this part and
  then you should play like this:
  e--1~~~~~~~~~\|-4~~~~~~~~~~~~~~\|-6~~~~~~~~~~-|-6~~~~~~~~~~~/-|
  H--1~~~~~~~~~\|-4~~~~~~~~~~~~~~\|-6~~~~~~~~~~-|-6~~~~~~~~~~~/-|
  G-------------|-----------------|-------------|---------------|
  D-------------|-----------------|-------------|---------------|
  A-------------|-----------------|-------------|---------------|
  E-------------|-----------------|-------------|---------------|
  and then:        
  e--13~~~~~~~~\|-16~~~~~~~~~~~~~\|-18~~~~~~~~~-|-18~~~~~~~~~~/-|
  H--13~~~~~~~~\|-16~~~~~~~~~~~~~\|-18~~~~~~~~~-|-18~~~~~~~~~~/-|
  G-------------|-----------------|-------------|---------------|
  D-------------|-----------------|-------------|---------------|
  A-------------|-----------------|-------------|---------------|
  E-------------|-----------------|-------------|---------------|
]


Fm              D#
Her feelings she hides.
                     C#
Her dreams she can't find.
                C#
shes losing her mind 
              Fm
She's fallen behind.
                   D# 
She can't find her place.
                 C# 
She's losing her faith
                  C#
She's fallen from grace.
                   C#      ...........
She's all over the place. Yeah  oh oh

Chorus:
 ...

Outro:

Fm          G#            D#
She's lost inside, lost inside...oh oh. 
Fm          G#            D#                
She's lost inside, lost inside...oh oh yeah.





Comments


Popular Avril Lavigne tabs & chords
Nobodys Fool Bass Tabs
When Youre Gone Bass Tabs
Everybody Hurts Chords
Im With You 4 Chords
Let Me Go 2 Chords
Falling Down 2 Tabs
Nobody's Fool 1 Tabs
Tomorrow Tabs
I Can Do Better Ukulele
Innocence 2 Ukulele


Song lyrics



↑ Back to top | Tablatures and chords are parodies/interpretations of the original songs. You may use it for private study, scholarship, research or language learning purposes only
© 2014 AZChords.com Contact us | Privacy policy | DMCA | Add/correct tabs | Request tabs | Top 50 tabs