>
 >
Nobodys Fool

Nobodys Fool Guitar Tabs

Avril Lavigne - Nobodys Fool chords, tabs, tablatures, lyrics

Guitar lessons | Add/correct | Request | Top 50 tabs Artists:  A B C D E F G H I J K L M N O P Q R S T U V W X Y Z 0-9

Nobodys Fool Guitar Tabs – Avril Lavigne

CD, Sheet music, Poster

Do you like Nobodys Fool? Share with your friends now
Bass TabsChordsChords v2TabsUkulele
Avril Lavigne- Nobody’s Fool

Intro
     ---------------------------------------------------------------------------------------------
     ---------------------------------------------------------------------------------------------
     -------------9----------------------9--------------------------9-----------------------------
     -------9---------9------------9----------9---------------9----------9------------------------
     --7---------------------7-----------------------7----6-------------------6-------------------
     ---------------------------------------------------------------------------------------------

     ------------------------------------------------------------------------------------------------
     ------------------------------------------------------------------------------------------------
     --------------9 ---------------------------------9--------------------------9-------------------
     --------9------------9-----------------9--------------9-----------9------------9----------------
     ---6----------------------6---------------------------------------------------------------------
     ----------------------------------9----------------------------9----------------------9---------

     -----------------------------------------
     -------------7-----7-------7----7--------
     -------------9-----9-------9----9-----*--
     --------9----------9-------9----9-----*--
     ---0-------------------------------------
     -----------------------------------------

Verse  (palm muted)
     --------------------------------------------------------------------------------------------
     --------------------------------------------------------------------------------------------
     ------9----9----9----9----9----9----9----9----9----9----9----9----9----9----9----9----------
     ------9----9----9----9----9----9----9----9----9----9----9----9----9----9----9----9----------
     ------7----7----7----7----7----7----7----7----6----6----6----6----6----6----6----6----------
     --------------------------------------------------------------------------------------------

     -------------------------------------------------------------------------------------------
     -------------------------------------------------------------------------------------------
     ------9----9----9----9----9----9----9----9----9---9----9----9----9----9----9----9---*------
     ------9----9----9----9----9----9----9----9----9---9----9----9----9----9----9----9---*------
     --------------------------------------------------0----0----0----0----0----0----0----------
     ------9----9----9----9----9----9----9----9-------------------------------------------------

Bridge: 
E                    B                C#m             Asus4


Chorus 
E                    B                C#m              Asus4

Then the rest is pretty much the same as that all the way thru! Sorry if its wrong but hey ho life goes on!!


Lyrics:

Step up step up (step up)
Step up step up (step up)
Step up step up
Step up 

Fall back, take a look at me and you'll see
I'm for real, I feel what only I can feel 
and if that don't appeal to you
Let me know and I'll go cuz I flow
better when my colors show,
and that's the way it has to be.
Honestly, cuz creativity could never bloom in my room
I'd throw it all away before I lie,
So don't call me with a compromise
Hang up the phone I've got a backbone stronger than yours.

(step up) la la... (step up) la la... (step up) La la...
Yeah...

If you're tryin' to turn me into someone else
It's easy to see I'm not down with that
(Not nobody's fool) I'm not nobody's fool
If you're tryin' to turn me into something else
I've seen it enough and I'm over that
(Not nobodys fool) I'm not nobody's fool
If you wanna bring me down
Go ahead and try
Go ahead and try.

Don't know you think you know me like yourself,
But I fear that you're only telling me what I wanna hear
But do you give a damn?
Understand that I can't not be what I am.
I'm not the milk and cheerios in your spoon.
It's not that simple here we go not so soon.
I might have fallen for that when I was fourteen
And a little more green,
but it's amazing what a couple of years can mean.

(step up) la la... (step up) la la... (step up) 
la la...Yeah... 

If you're tryin' to turn me into someone else
It's easy to see I'm not down with that
(Not nobody's fool) I'm not nobody's fool
If you're tryin' to turn me into something else
I've seen it enough and I'm over that
(Not nobodys fool) I'm not nobody's fool.

If you wanna bring me down
then go ahead and try
go ahead and try.

Oh...
Go ahead and try 
Try to look me in the eye but you'll never see inside
Until you realize (realize)

Things are tryin' to settle down
Just try to figure out
Exactly what I'm about
If it's with or without you I don't need ya doubting me

If you're tryin' to turn me into someone else
It's easy to see I'm not down with that
(Not nobody's fool) I'm not nobody's fool
If you're tryin' to turn me into something else
I've seen it enough and I'm over that
(Not nobody's fool) I'm not nobody's fool
If you wanna bring me down
then go ahead and try...

(Go ahead and try) La la... (Go ahead and try) La la... 
Yeah...Go ahead and try
You'll be laughing out loud when I'm playin' to my own crowd
Try...





Comments


Popular Avril Lavigne tabs & chords
Fall To Pieces 2 Chords
He Wasnt 2 Chords
Hot 2 Chords
Losing Grip Chords
Tomorrow 4 Chords
Wish You Were Here 4 Chords
Sk8a Boi Tabs
Adia Ukulele
Keep Hoding On Ukulele
Two Rivers Ukulele


Song lyrics



↑ Back to top | Tablatures and chords are parodies/interpretations of the original songs. You may use it for private study, scholarship, research or language learning purposes only
© 2014 AZChords.com Contact us | Privacy policy | DMCA | Add/correct tabs | Request tabs | Top 50 tabs