» » »

Avril Lavigne, Move Your Little Self On Bass tabs (ver.1)

Artists:  A B C D E F G H I J K L M N O P Q R S T U V W X Y Z # 

Move Your Little Self On Bass tabs (ver.1)

Avril Lavigne Tabs
 Rating:
4/5 (4 votes)
Move Your Little Self On lessons Tabs too difficult? Try these video lessons and learn fast
                Avril Lavigne
Move Your Little Self On
2001 Bsides

Key: G

Tuning: Standard EADGBe


Intro:
G|-----------------------------5--5-5-|
D|----------------2-------------------|
A|---------------------------3--------| (x2)
E|-3--3-3--0--0-0----1--1-1-----------|


Pre Verse:
G|------|
D|------|
A|------|
E|--0-0-|


Verse 1: at 0:50
G|----------|
D|----------|
A|------0-4-|
E|-0-0------|

The way you hold me...
G|---------2-2-2-2-2-2-2-|
D|-----------------------|
A|-3--3-3----------------|
E|-----------------------|


Chorus:
G|-----------------------------5--5-5------------------|
D|----------------2--------------------2--2-4--4-5-----|
A|---------------------------3---------------------5---|
E|-3--3-3--0--0-0----1--1-1--------------------------3-|
then
G|--------------------------------------------------|
D|----------------2---------------------------------|
A|---------------------------3-3--3-3-------------3-|
E|-3--3-3--0--0-0----1--1-1------------0--0-0-2-3---|


Bridge: When you say...
G|------------------------------------------------------------|
D|-----------------------------------13-13-2-2-2-2-7-7-7-7----|
A|-7-7-7-7-12-12-12-12-7-7-7-7-12-12--------------------------|
E|------------------------------------------------------------|

why why why...
G|--------------------------|
D|--------------------------|
A|-7-7-7-5-5-5-3-3-3--0-4-4-|
E|--------------------------|
            
Submit corrections

comments powered by Disqus
↑ Back to top | Avril Lavigne Bass for Move Your Little Self On. Lyrics for acoustic guitar and electric guitar. Tablatures and chords are parodies/interpretations of the original songs. You may use it for private study, scholarship, research or language learning purposes only