» » »

Mobile Bass tabs (ver.2)

Artists:  A B C D E F G H I J K L M N O P Q R S T U V W X Y Z # 

Mobile Bass tabs (ver.2)

Avril Lavigne
Rating:
0/5 (0 votes)

Hard to play? Try these video lessons and learn fast.
                Tuning: Standard

Into + Verse
Not sure if this is actually the bass but you can play:
-9h11p9-7-|
----------|
----------|
----------|

Play this at 00:05
	     00:15
             00:28
             00:37

Chorus
-------------------------------------------------------------------|
-----------------2-2-2-2-2-2-2-2-----------------------------------|
-0-0-0-0-0-0-0-0-----------------2-2-2-2-2-2-2-2-2-----------------|
---------------------------------------------------2-2-2-2-2-2-2-2-|

-----------2------------------------------------------------------|
---------2---2---2-2-0-0------------------------------------------|
-0-0-0-0-------0---------4-4-2-2--2-2-2-2-2-2-2-2-----------------|
--------------------------------------------------2-2-2-2-2-2-2-2-|

Play Verse again at 01:07
                    01:21


Chorus again then
---------------------------------|
---------------------------------|
-2-2-2-2-2-2-2-2-----------------|
-----------------2-2-2-2-2-2-2-2-|

Interlude
---------------------------------|
-0-0-0-0-0-0-0-0-2-2-2-2-2-2-2-2-|
---------------------------------|
---------------------------------|
                              [Sometimes I want to scream out loud]
------------------------------------------------------------------|
-0-0---------------2--2-2-2-2--4-4-4-4-4-4-4-4-6-6-6-6-6-6-6-6-6--|
-----4-4-2-2-0-0--2-----------------------------------------------|
------------------------------------------------------------------|

Then play 2nd half of chorus during solo.
Then after acoustic part play 2nd half of chorus x 4.
            
Hard to play? Try these video lessons and learn fast. | Correct




comments powered by Disqus
↑ Back to top | Tablatures and chords are parodies/interpretations of the original songs. You may use it for private study, scholarship, research or language learning purposes only