» » »

Losing Grip Bass tabs (ver.1)

Artists:  A B C D E F G H I J K L M N O P Q R S T U V W X Y Z # 

Losing Grip Bass tabs (ver.1)

Avril Lavigne
Rating:
0/5 (0 votes)

Hard to play? Try these video lessons and learn fast.
                Hey, this songs in drop do (G,D,A,D) and theres variations in the beat, but you'll pick them up easily, thanks rob.

Intro/Verse:

G--------------------------------
D--------------------------------
A---------------------------------    X6
D----666---2222----444----2222


Chorus:
G------------------------------------------------------------------
D-------------------------------------------------------------------  X2
A--------------------------------------------------------------4444
D----6-6-6-11111---222-1111-----6-6-6-1111---2-2-2------


Intro/Verse:

G--------------------------------
D--------------------------------
A---------------------------------    X6
D----666---2222----444----2222


Chorus:
G------------------------------------------------------------------
D------------------------------------------------------------------- X2
A--------------------------------------------------------------4444
D----6-6-6-11111---222-1111-----6-6-6-1111---2-2-2------

Intro/Verse:

G--------------------------------
D--------------------------------
A--------------------------------- X2
D----666---2222----444----2222

Chorus:
G------------------------------------------------------------------
D------------------------------------------------------------------- X1
A--------------------------------------------------------------4444
D----6-6-6-11111---222-1111-----6-6-6-1111---2-2-2------

Short break, maybe a solo?, but then bass comes back


Chorus:
G------------------------------------------------------------------
D------------------------------------------------------------------- X4
A--------------------------------------------------------------4444
D----6-6-6-11111---222-1111-----6-6-6-1111---2-2-2------

Play the song fading out slowly
            
Hard to play? Try these video lessons and learn fast. | Correct




comments powered by Disqus
↑ Back to top | Tablatures and chords are parodies/interpretations of the original songs. You may use it for private study, scholarship, research or language learning purposes only