» » »

Avril Lavigne, Losing Grip Tabs (ver.3)

Artists:  A B C D E F G H I J K L M N O P Q R S T U V W X Y Z # 

Losing Grip Tabs (ver.3)

Avril Lavigne Tabs
 Rating:
4/5 (4 votes)
Losing Grip lessons Tabs too difficult? Try these video lessons and learn fast
1
                cVerse:

   G#m    E       F#      E   
E----4------0------2------0---     
B----4------0------2------0---    
G----4------1------3------1---    repeat 
D----6------2------4------2---
A----6------2------4------2---
E----4------0------2------0---

Chorus:
         
        G#5    D#5        E5     D#5         G#5    D#5        E5      F#5          C#5
 E----x------x------|----x------x------|----x------x------|----x------x------|----x------
 B----x------x------|----x------x------|----x------x------|----x------x------|----x------
 G----x------8------|----x------8------|----x------8------|----x------x------|----6------       repeat
 D----6------8------|----2------8------|----6------8------|----2------4------|----6------
 A----6------6------|----2------6------|----6------6------|----2------4------|----4------
 E----4------6------|----0------6------|----4------6------|----0------2------|----4------
       Why….              Care….

And play with distortion throughout the whole song
            
Submit corrections

comments powered by Disqus
↑ Back to top | Avril Lavigne Tabs for Losing Grip. Lyrics for acoustic guitar and electric guitar. 1 Tablatures and chords are parodies/interpretations of the original songs. You may use it for private study, scholarship, research or language learning purposes only