» » »

Avril Lavigne, Keep Holding On Tabs (ver.1)

Artists:  A B C D E F G H I J K L M N O P Q R S T U V W X Y Z # 

Keep Holding On Tabs (ver.1)

Avril Lavigne Tabs
Rating:
0/5 (0 votes)
Keep Holding On lessons Tabs too difficult? Try these video lessons and learn fast
                Band: Avril Lavigne

Enjoy
Please comment if you have any questions

Intro
|----3---|--2-2---|----0---|----0---|----0---|----0---|----0---|----0---|
|-----3--|--3--3--|-----0--|--1--1--|-----0--|-----0--|--1--1--|--1--1--|
|--0-----|--2-----|--0-----|--0-----|--0-----|--0-----|--0-----|--0-----|
|--0-----|--0-----|--2-----|--2-----|--2-----|--2-----|--2-----|--2-----|
|--2-----|--------|--2-----|--3-----|--2-----|--2-----|--3-----|--3-----|
|--3-----|--------|--0-----|--0-----|--0-----|--0-----|--0-----|--0-----|

Verse 1
|----3---|--2-2---|----0---|----0---|
|-----3--|--3--3--|-----0--|--1--1--|
|--0-----|--2-----|--0-----|--0-----|
|--0-----|--0-----|--2-----|--2-----|
|--2-----|--------|--2-----|--3-----|
|--3-----|--------|--0-----|--0-----| x2

Then strum this
D                  Em         C
 No I won't give in

Your not alone
Together we stand
I'll be by your side
You know I'll take your hand
When it gets cold
And it feels like the end
There's no place to go you know I won't give in
 No I won't give in


Chorus (With Distortion)
G     D      Em
 Keep holding on
                C
 Cause you know we'll make it through
 C
 We'll make it through
 G    D    Em
 Just stay strong
                    C
 Cause you know I'm here for you
 C
 I'm here fot you
 G                            Em
 There's nothing you can say, nothing you can do
                  C                        Em
 There's no other way when it comes to the truth
    G    D       Em
 So keep holding on
                C
 Cause you know we'll make it through
 C
 Make it through

Repeat Verse 1 Riff Through Verse 2

So far away
I wish you were here
Before it's too late this could all dissapear
Before the doors close
And it come to an end
But with you by my side I will fight and defend
I'll Fight and defend
Yeah Yeah.

Chorus

Bridge
Am                             C
Hear me when I say, When I say I believe
Am                                     Em
Nothin's gonna change, nothin's gonna change destiny
Am                          Em
Whatever's ment to will work out perfectly
C
Yeah! Yeah! Yeah! Yeahahahhhhh...
C
ladada da ladada da ladada dadadadada

Chorus x2
            
Submit corrections

comments powered by Disqus
↑ Back to top | Avril Lavigne Tabs for Keep Holding On. Lyrics for acoustic guitar and electric guitar. Tablatures and chords are parodies/interpretations of the original songs. You may use it for private study, scholarship, research or language learning purposes only