» » »

Avril Lavigne, I Will Be Bass tabs (ver.1)

Artists:  A B C D E F G H I J K L M N O P Q R S T U V W X Y Z # 

I Will Be Bass tabs (ver.1)

Avril Lavigne Tabs
 Rating:
4/5 (4 votes)
I Will Be lessons Tabs too difficult? Try these video lessons and learn fast
1
                Avril Lavigne
I Will Be


Key: G

Tuning: Standard EADG


Chorus 1: silent chorus without drums
G|------------|
D|------------|
A|-------2--3-| x2
E|-3--0-------|


Verse 2: "I thought that I had everything..."
G|------------------------------------|
D|------------------------------------|
A|-------------------2-2-2-2--3-3-3-3-| x2
E|-3-3-3-3--0-0-0-0-------------------|


Refrain: "and if i let you down"
G|--------9-7-----------5-4-0--------------------|
D|------9-----5-------5--------------------------|
A|-7--7----------3--3----------7--7---7--3-------|
E|----------------------------------0-------2--3-|


Chorus 2: "I will be..."
G|------------------------------------|
D|------------------------------------|
A|-------------------2-2-2-2--3-3-3-3-| x2
E|-3-3-3-3--0-0-0-0-------------------|


Bridge: "Coz without you"
G|-------7----------7-------------------10-9--------|
D|-----7---7------7---7--------2-------------9h10p9-|
A|-5-5--------5-5------------2---2----7-------------|
E|-----------------------0-0--------0---------------|

G|-------7----------7---------------------------------12-|
D|-----7---7------7---7--------2-------------------14----|
A|-5-5--------5-5------------2---2----7/14--14--14-------|
E|-----------------------0-0--------0--------------------|

G|-------7----------7-------------------10-9--------|
D|-----7---7------7---7--------2-------------9h10p9-|
A|-5-5--------5-5------------2---2----7-------------|
E|-----------------------0-0--------0---------------|

G|----------------------12------------------------|
D|-------------------10----10---------------------|
A|-3-3/15-15-15\3/10----------3-3-3-3-3-3-5-5-5-5-|
E|------------------------------------------------|


Interlude:
G|------------------------|
D|------------------------|
A|-------2-2-2-2--3-3-3-3-|
E|-3--0-------------------|
            
Submit corrections

comments powered by Disqus
↑ Back to top | Avril Lavigne Bass for I Will Be. Lyrics for acoustic guitar and electric guitar. 1 Tablatures and chords are parodies/interpretations of the original songs. You may use it for private study, scholarship, research or language learning purposes only