>
 >
Inocence

Inocence Guitar Tabs

Avril Lavigne - Inocence chords, tabs, tablatures, lyrics

Guitar lessons | Add/correct | Request | Top 50 tabs Artists:  A B C D E F G H I J K L M N O P Q R S T U V W X Y Z 0-9

Inocence Guitar Tabs – Avril Lavigne

CD, Sheet music, Poster

Do you like Inocence? Share with your friends now
Tabs
 Innocence                                     


                                                                   Avril Lavigne
Guitar



     E  S S S S S S E  S S S S E     E  S S S S S S E  S S S S E   
E||-------0-------0------0--------|-------0-------0------0--------|
B||-----4---4-0-4------4---4-0-2--|-----4---4-0-4------4---4-0-2--|
G||-------------------------------|-------------------------------|
D||-------------------------------|-------------------------------|
A||--4--------------0-------------|--4--------------0-------------|
E||-------------------------------|-------------------------------|


  Q    E  E  Q    E  E     Q    E  E  Q    E  E     Q    E  E  Q    E  E   
--4----4-----0----0-----|--4----4-----0----0-----|--4----4-----0----0-----|
--5----5-----2----2-----|--5----5-----2----2-----|--5----5-----2----2-----|
--6----6-----2----2-----|--6----6-----2----2-----|--6----6-----2----2-----|
------------------------|------------------------|------------------------|
--4-------4--0-------0--|--4-------4--0-------0--|--4-------4--0-------0--|
------------------------|------------------------|------------------------|


  Q    E  E  Q    E  E     Q    E  E  Q    E  E     Q    E  E  Q    E  E   
--4----4-----0----0-----|--2----2-----0----2-----|--0----0----------0-----|
--5----5-----2----2-----|--4----4-----4----4-----|--2----2-----4----2-----|
--6----6-----2----2-----|--4----4-----4----4-----|--2----2-----6----2-----|
------------------------|------------------------|-------------7----------|
--4-------4--0-------0--|--2-------2--2-------2--|--0-------0--0-------0--|
------------------------|------------------------|------------------------|


  Q    E  E  Q    E  E     Q    E  E  Q    Q       Q    E  E  Q    E  E   
--2----2-----0----2-----|--0----0-----0----2----|--4----4-----0----0-----|
--4----4-----4----4-----|--2----2-----2----4----|--5----5-----2----2-----|
--4----4-----4----4-----|--2----2-----2----4----|--6----6-----2----2-----|
------------------------|-----------------------|------------------------|
--2-------2--2-------2--|--0-------0--0----2----|--4-------4--0-------0--|
------------------------|-----------------------|------------------------|


  Q    E  E  Q    E  E     Q    E  E  Q    E  E     Q    E  E  Q    E  E   
--4----4-----2----2-----|--4----4-----0----0-----|--4----4-----2----2-----|
--5----5-----4----4-----|--5----5-----2----2-----|--5----5-----4----4-----|
--4----4-----4----4-----|--6----6-----2----2-----|--4----4-----4----4-----|
--2-------2-------------|------------------------|--2-------2-------------|
-------------2-------2--|--4-------4--0-------0--|-------------2-------2--|
------------------------|------------------------|------------------------|


  Q    E  E  Q    E  E     Q    E  E  Q    E  E     Q    Q    Q    Q     
--4----4-----0----0-----|--4----4-----2----2-----|------------0----2----|
--5----5-----2----2-----|--5----5-----4----4-----|--2----4----2----4----|
--6----6-----2----2-----|--4----4-----4----4-----|--2----4--------------|
------------------------|--2-------2-------------|----------------------|
--4-------4--0-------0--|-------------2-------2--|--0-------------------|
------------------------|------------------------|----------------------|


  Q    Q    H           E  S S S S S S E  S S S S E   
-------0----2--------|-------0-------0------0--------|
--4----2----4--------|-----4---4-0-4------4---4-0-2--|
--4------------------|-------------------------------|
---------------------|-------------------------------|
--2------------------|--4--------------0-------------|
---------------------|-------------------------------|


  E  S S S S S S E  S S S S E     Q    E  E  Q    E  E   
-------0-------0------0--------|--4----4-----0----0-----|
-----4---4-0-4------4---4-0-2--|--5----5-----2----2-----|
-------------------------------|--6----6-----2----2-----|
-------------------------------|------------------------|
--4--------------0-------------|--4-------4--0-------0--|
-------------------------------|------------------------|


  Q    E  E  Q    E  E     Q    E  E  Q    E  E     Q    E  E  Q    E  E   
--4----4-----0----0-----|--4----4-----0----0-----|--4----4-----0----0-----|
--5----5-----2----2-----|--5----5-----2----2-----|--5----5-----2----2-----|
--6----6-----2----2-----|--6----6-----2----2-----|--6----6-----2----2-----|
------------------------|------------------------|------------------------|
--4-------4--0-------0--|--4-------4--0-------0--|--4-------4--0-------0--|
------------------------|------------------------|------------------------|


  Q    E  E  Q    E  E     Q    E  E  Q    E  E     Q    E  E  Q    E  E   
--2----2-----0----2-----|--0----0----------0-----|--2----2-----0----2-----|
--4----4-----4----4-----|--2----2-----4----2-----|--4----4-----4----4-----|
--4----4-----4----4-----|--2----2-----6----2-----|--4----4-----4----4-----|
------------------------|-------------7----------|------------------------|
--2-------2--2-------2--|--0-------0--0-------0--|--2-------2--2-------2--|
------------------------|------------------------|------------------------|


  Q    E  E  Q    Q       Q    E  E  Q    E  E     Q    E  E  Q    E  E   
--0----0-----0----2----|--4----4-----0----0-----|--4----4-----2----2-----|
--2----2-----2----4----|--5----5-----2----2-----|--5----5-----4----4-----|
--2----2-----2----4----|--6----6-----2----2-----|--4----4-----4----4-----|
-----------------------|------------------------|--2-------2-------------|
--0-------0--0----2----|--4-------4--0-------0--|-------------2-------2--|
-----------------------|------------------------|------------------------|


  Q    E  E  Q    E  E     Q    E  E  Q    E  E     Q    E  E  Q    E  E   
--4----4-----0----0-----|--4----4-----2----2-----|--4----4-----0----0-----|
--5----5-----2----2-----|--5----5-----4----4-----|--5----5-----2----2-----|
--6----6-----2----2-----|--4----4-----4----4-----|--6----6-----2----2-----|
------------------------|--2-------2-------------|------------------------|
--4-------4--0-------0--|-------------2-------2--|--4-------4--0-------0--|
------------------------|------------------------|------------------------|


  Q    E  E  Q    E  E     Q    Q    Q    Q       Q    Q    H         
--4----4-----2----2-----|------------0----2----|-------0----2--------|
--5----5-----4----4-----|--2----4----2----4----|--4----2----4--------|
--4----4-----4----4-----|--2----4--------------|--4------------------|
--2-------2-------------|----------------------|---------------------|
-------------2-------2--|--0-------------------|--2------------------|
------------------------|----------------------|---------------------|


  Q    E  E  Q    E  E     Q    E  E  Q    E  E     Q    E  E  Q    E  E   
--4----4-----0----0-----|--4----4-----2----2-----|--4----4-----0----0-----|
--5----5-----2----2-----|--5----5-----4----4-----|--5----5-----2----2-----|
--6----6-----2----2-----|--4----4-----4----4-----|--6----6-----2----2-----|
------------------------|--2-------2-------------|------------------------|
--4-------4--0-------0--|-------------2-------2--|--4-------4--0-------0--|
------------------------|------------------------|------------------------|


  Q    E  E  Q    E  E     Q    E  E  Q    E  E     Q    E  E  Q    E  E   
--2----2-----2----2-----|--4----4-----0----0-----|--4----4-----2----2-----|
--4----4-----4----4-----|--5----5-----2----2-----|--5----5-----4----4-----|
--4----4-----4----4-----|--6----6-----2----2-----|--4----4-----4----4-----|
------------------------|------------------------|--2-------2-------------|
--2-------2--2-------2--|--4-------4--0-------0--|-------------2-------2--|
------------------------|------------------------|------------------------|


  Q    E  E  Q    E  E     Q    E  E  Q    E  E     W                 
--4----4-----0----0-----|--2----2-----2----2-----|-------------------|
--5----5-----2----2-----|--4----4-----4----4-----|-------------------|
--6----6-----2----2-----|--4----4-----4----4-----|-------------------|
------------------------|------------------------|--4----------------|
--4-------4--0-------0--|--2-------2--2-------2--|--6----------------|
------------------------|------------------------|--7----------------|


  Q    E  E  Q    E  E     Q    E  E  Q    E  E     Q    E  E  Q    E  E   
--4----4-----0----0-----|--4----4-----2----2-----|--4----4-----0----0-----|
--5----5-----2----2-----|--5----5-----4----4-----|--5----5-----2----2-----|
--6----6-----2----2-----|--4----4-----4----4-----|--6----6-----2----2-----|
------------------------|--2-------2-------------|------------------------|
--4-------4--0-------0--|-------------2-------2--|--4-------4--0-------0--|
------------------------|------------------------|------------------------|


  Q    E  E  Q    E  E     Q    E  E  Q    E  E     Q    E  E  Q    E  E   
--4----4-----2----2-----|--4----4-----0----0-----|--4----4-----2----2-----|
--5----5-----4----4-----|--5----5-----2----2-----|--5----5-----4----4-----|
--4----4-----4----4-----|--6----6-----2----2-----|--4----4-----4----4-----|
--2-------2-------------|------------------------|--2-------2-------------|
-------------2-------2--|--4-------4--0-------0--|-------------2-------2--|
------------------------|------------------------|------------------------|


  Q    Q    Q    Q       Q    Q    H           Q    E  E  Q    E  E   
------------0----2----|-------0----2--------|--4----4-----0----0-----|
--2----4----2----4----|--4----2----4--------|--5----5-----2----2-----|
--2----4--------------|--4------------------|--6----6-----2----2-----|
----------------------|---------------------|------------------------|
--0-------------------|--2------------------|--4-------4--0-------0--|
----------------------|---------------------|------------------------|


  Q    E  E  Q    E  E     Q    E  E  Q    E  E     Q    E  E  Q    E  E   
--4----4-----2----2-----|--4----4-----0----0-----|--4----4-----2----2-----|
--5----5-----4----4-----|--5----5-----2----2-----|--5----5-----4----4-----|
--4----4-----4----4-----|--6----6-----2----2-----|--4----4-----4----4-----|
--2-------2-------------|------------------------|--2-------2-------------|
-------------2-------2--|--4-------4--0-------0--|-------------2-------2--|
------------------------|------------------------|------------------------|


  Q    E  E  Q    E  E     Q    E  E  Q    E  E     Q    Q    Q    Q     
--4----4-----0----0-----|--4----4-----2----2-----|------------0----2----|
--5----5-----2----2-----|--5----5-----4----4-----|--2----4----2----4----|
--6----6-----2----2-----|--4----4-----4----4-----|--2----4--------------|
------------------------|--2-------2-------------|----------------------|
--4-------4--0-------0--|-------------2-------2--|--0-------------------|
------------------------|------------------------|----------------------|


  Q    Q    H           E  S S S S S S E  S S S S E   
-------0----2--------|-------0-------0------0--------|
--4----2----4--------|-----4---4-0-4------4---4-0-2--|
--4------------------|-------------------------------|
---------------------|-------------------------------|
--2------------------|--4--------------0-------------|
---------------------|-------------------------------|


  E  S S S S S S E  S S S S E     E  S S S S S S E  S S S S E   
-------0-------0------0--------|-------0-------0------0--------|
-----4---4-0-4------4---4-0-2--|-----4---4-0-4------4---4-0-2--|
-------------------------------|-------------------------------|
-------------------------------|-------------------------------|
--4--------------0-------------|--4--------------0-------------|
-------------------------------|-------------------------------|


  E  S S S S S S H          
-------0-------0----------||
-----4---4-0-4------------||
--------------------------||
--------------------------||
--4--------------0--------||
--------------------------||




Duration Legend
---------------
W - whole
H - half
Q - quarter
E - 8th
S - 16th
T - 32nd
X - 64th
. - note dotted
|-n-|  - n-tuplets


Tablature Legend
----------------
L - tied note
x - dead note
g - grace note
(n) - ghost note
> - accentuded note
NH - natural harmonic
AH - artificial harmonic
TH - tapped harmonic
SH - semi harmonic
PH - pitch harmonic
h - hammer on
p - pull off
b - bend
br - bendRelease
pb - preBend
pbr - preBendRelease
brb - bendReleaseBend
\n/ - tremolo bar dip
\n - tremolo bar dive
-/n - tremolo bar Release up
/n\ - tremolo bar inverted dip
/n - tremolo bar return
-\n - tremolo bar Release down
S - shift slide
s - legato slide
/ -  slide into from below or out of upwards
\ -  slide into from above or out of downwards
~ - vibrato
W - wide vibrato
tr - trill
TP - tremolo picking
T - tapping
S - slap
P - pop
< - fade in
^ - brush up
v - brush down





Comments


Popular Avril Lavigne tabs & chords
Move Your Little Self On Bass Tabs
Sk8er Boi 4 Bass Tabs
Hush Hush 2 Chords
Slipped Away Chords
You Never Satisfy Me Chords
Forgotten 2 Tabs
Tomorrow 2 Tabs
Tomorrow You Didnt Ukulele
Wish You Were Here 2 Ukulele
You Never Satisfy Me Ukulele


Song lyrics



↑ Back to top | Tablatures and chords are parodies/interpretations of the original songs. You may use it for private study, scholarship, research or language learning purposes only
© 2014 AZChords.com Contact us | Privacy policy | DMCA | Add/correct tabs | Request tabs | Top 50 tabs