>
 >
I Love You

I Love You Bass Tabs

Avril Lavigne - I Love You chords, tabs, tablatures, lyrics

Guitar lessons | Add/correct | Request | Top 50 tabs Artists:  A B C D E F G H I J K L M N O P Q R S T U V W X Y Z 0-9

I Love You Bass Tabs – Avril Lavigne

CD, Sheet music, Poster

Do you like I Love You? Share with your friends now
Bass TabsChordsChords v2Chords v3Ukulele
Avril Lavigne
I Love You
Goodbye Lullaby
2011 RCA Records

Key: C

Tuning: Standard EADG

Verse 1:
I like your smile, I like your vibe
But that's not why I love you
   C    Em   Am   F
G|-12-|-16-|-14-|-17-|
D|----|----|----|----|
A|----|----|----|----|
E|----|----|----|----|

And I, I like your way you're such a star
But that's not why I love you
   C    Em   Am   F
G|-12-|-16-|-14-|-17-|
D|----|----|----|----|
A|----|----|----|----|
E|----|----|----|----|


Refrain:
Hey do you feel me
           C                 Em
G|------------------|------------------|
D|------------------|------------------|
A|-3-3-3-3-3--3-3-3-|-7-7-7-7-7--7-7-7-|
E|------------------|------------------|

Do you feel do you feel what I feel too
       Am                           F
G|------------------|---------------10h12p10p9p10----|
D|------------------|------------10---------------10-|
A|------------------|-8-8-8-8-8----------------------|
E|-5-5-5-5-5--5-5-5-|--------------------------------|

Do you need me do you need
          C                  Em
G|------------------|----------------|
D|------------------|----------------|
A|-3-3-3-3-3--3-3-3-|-7-7-7-7-7--7-7-|
E|------------------|----------------|

Do you need me
          Am          F
G|------------------|---|
D|------------------|---|
A|------------------|-8-|
E|-5-5-5-5-5--5-5-5-|---|


Chorus:
you're so beautiful
           C                 Am
G|------------------|------------------|
D|------------5---5-|------------2---2-|
A|-3-3-3-3-3----3---|-0-0-0-0-0----0---|
E|------------------|------------------|

But that's not why I love you
           Em                  F
G|------------------|--------------------|
D|------------9---9-|------------10---10-|
A|-7-7-7-7-7----7---|-8-8-8-8-8-----8----|
E|------------------|--------------------|

I'm not sure you know
           C                 Am
G|------------------|------------------|
D|------------5---5-|------------2---2-|
A|-3-3-3-3-3----3---|-0-0-0-0-0----0---|
E|------------------|------------------|

That the reason I love you is you
           Em                  F
G|------------------|--------------------|
D|------------9---9-|------------10---10-|
A|-7-7-7-7-7----7---|-8-8-8-8-8-----8----|
E|------------------|--------------------|

being you just you
          C                 Am
G|-----------------|-----------------|
D|-----------------|-----------------|
A|-3-3-3-3-3-3-3-3-|-----------------|
E|-----------------|-5-5-5-5-5-5-5-5-|

Yeah the reason I love you
          Em                F
G|-----------------|-----------------|
D|-----------------|-----------------|
A|-----------------|-----------------|
E|-0-0-0-0-0-0-0-0-|-1-1-1-1-1-1-1-1-|

Is all that we've been through
          C                     Am
G|-----------------|-------------------------|
D|-----------------|-------------------------|
A|-3-3-3-3-3-3-3-3-|-12-12-12-12-12-12-12-12-|
E|-----------------|-------------------------|

that's why I love you
          Em                F
G|-----------------|-----------------|
D|-----------------|-----------------|
A|-7-7-7-7-7-7-7-7-|-8-8-8-8-8-8-8-8-|
E|-----------------|-----------------|


Post Chorus: la la la la la la
     C      CM7
G|-----5-|-----4-|
D|---5---|---5---| x2
A|-3-----|-3-----|
E|-------|-------|


Verse 2:
I like the way you misbehave when we get
           C                 Em
G|------------------|------------------|
D|------------------|------------------|
A|-3-3-3-3-3--3-3-3-|-7-7-7-7-7--7-7-7-|
E|------------------|------------------|

wasted, but that's not why I love you
          Am                  F
G|------------------|------------------|
D|------------------|------------------|
A|------------------|-8-8-8-8-8--8-8-8-|
E|-5-5-5-5-5--5-5-5-|------------------|

And how you keep your cool when I am compli-
           C                 Em
G|------------------|------------------|
D|------------------|------------------|
A|-3-3-3-3-3--3-3-3-|-7-7-7-7-7--7-7-7-|
E|------------------|------------------|

-cated but that's not why I love you
          Am                  F
G|------------------|------------------|
D|------------------|------------------|
A|------------------|-8-8-8-8-8--8-8-8-|
E|-5-5-5-5-5--5-5-5-|------------------|


(Repeat Refrain)
(Repeat Chorus)


Bridge:
yeah oh ho ho ho
             G            F     Em    C
G|---------------------|-----|-----|-----|
D|---------------------|-----|-----|-----|
A|-10-10--10-10--10-10-|-8-8-|-7-7-|-3-3-|
E|---------------------|-----|-----|-----|

yeah oh ho ho ho
             G            F     Em    C
G|---------------------|-----|-----|-----|
D|---------------------|-----|-----|-----|
A|-10-10--10-10--10-10-|-8-8-|-7-7-|-3-3-|
E|---------------------|-----|-----|-----|

Even though we didn't make it through
             G            F     Em    C
G|---------------------|-----|-----|-----|
D|---------------------|-----|-----|-----|
A|-10-10--10-10--10-10-|-8-8-|-7-7-|-3-3-|
E|---------------------|-----|-----|-----|

I am always here for you
    F     Em    C
G|-----|-----|-----|
D|-----|-----|-----|
A|-8-8-|-7-7-|-3-3-|
E|-----|-----|-----|

you
        F
G|-------------|
D|-------------|
A|-------------|
E|-1-1-1-1-1-1-|


(Repeat Chorus)


Outro:
La la la la oh oh
           C                 Am
G|------------------|------------------|
D|------------5---5-|------------2---2-|
A|-3-3-3-3-3----3---|-0-0-0-0-0----0---|
E|------------------|------------------|

La la la that's why I love you
           Em                  F
G|------------------|--------------------|
D|------------9---9-|------------10---10-|
A|-7-7-7-7-7----7---|-8-8-8-8-8-----8----|
E|------------------|--------------------|

La la la la oh oh
           C                 Am
G|------------------|------------------|
D|------------5---5-|------------2---2-|
A|-3-3-3-3-3----3---|-0-0-0-0-0----0---|
E|------------------|------------------|

La la la that's why I love you
           Em                  F           C
G|------------------|--------------------|---|
D|------------9---9-|------------10---10-|---|
A|-7-7-7-7-7----7---|-8-8-8-8-8-----8----|-3-|
E|------------------|--------------------|---|





Comments


Popular Avril Lavigne tabs & chords
Adia 1 Chords
Hot 6 Chords
Innocence 2 Chords
One Of Those Girls 1 Chords
Who Knows Chords
Freak Out Intro Tabs
I'm With You 2 Tabs
Nobodys Home 3 Tabs
Adia Ukulele
When Youre Gone 2 Ukulele


Song lyrics



↑ Back to top | Tablatures and chords are parodies/interpretations of the original songs. You may use it for private study, scholarship, research or language learning purposes only
© 2014 AZChords.com Contact us | Privacy policy | DMCA | Add/correct tabs | Request tabs | Top 50 tabs