» » »

Avril Lavigne, I Dont Have To Try Bass tabs (ver.1)

Artists:  A B C D E F G H I J K L M N O P Q R S T U V W X Y Z # 

I Dont Have To Try Bass tabs (ver.1)

Avril Lavigne Tabs
Rating:
0/5 (0 votes)
Hard to play? Try these video lessons and learn fast.
                Avril Lavigne
I Don't Have To Try
The Best Damn Thing
2007 RCA Records


Tuning: Standard EADG


Intro: Avril raps, "I'm the one I'm the one who wear the pants!!!"

then

G|--------------------------------------------|
D|--------------------------------------------|
A|-2-2-2-2-2----------------------------------| (x2)
E|------------2-2-2-2-2--4-4-4-4-4--0-0-0-0-0-|


Verses: Hey you, follow me!!!
G|-------------------------------------------|
D|-------------------------------------------|
A|---------/9-9\2-2-2-2----------2-2/4-4-4-4-| (x3)
E|-4-4-4-4---------------2-2-2-2-------------|
then
G|---------------------------------------------6-6-6-6-|
D|-------------------------------------------6---------|
A|---------/9-9\2-2-2-2----------2-2/4-4-4-4-----------|
E|-4-4-4-4---------------2-2-2-2-----------------------|


Chorus: I Don't have to try to make you realize!!!
G|----------------------------------|
D|----------------------------------|
A|-2-2-2-2/6-6-6-6---------/7-7-7-7-| (x2)
E|-----------------4-4-4-4----------|

then "Anything I wanted to I do!!!"
G|---------------------------------|
D|---------------------------------|
A|-2-2-2-2-------------------------|
E|---------2-2-2-2-4-4-4-4-0-0-0-0-|

then
I Don't have to try !!!
G|----------------------------------|
D|----------------------------------|
A|-2-2-2-2/6-6-6-6---------/7-7-7-7-|
E|-----------------4-4-4-4----------|


Bridge: Avril screams
G|-------------------------------------|
D|-------------------6(all htroughout)-|
A|-----------------6-------------------|
E|-4(all throuout)---------------------|
then cool riff
G|-------------------------------------------------1-1-1-1-3-3-3-3/11-9-8-|
D|---------------------------------1-1-1-1-4-4-4-4------------------------|
A|---------1-1-1-1-2-2-2-2-4-4-4-4----------------------------------------|
E|-4-4-4-4----------------------------------------------------------------|
            

comments powered by Disqus
↑ Back to top | Avril Lavigne Bass for I Dont Have To Try. Lyrics for acoustic guitar and electric guitar. Tablatures and chords are parodies/interpretations of the original songs. You may use it for private study, scholarship, research or language learning purposes only