» » »

Hot Bass tabs (ver.2)

Artists:  A B C D E F G H I J K L M N O P Q R S T U V W X Y Z # 

Hot Bass tabs (ver.2)

Avril Lavigne
Rating:
0/5 (0 votes)

Tabs too difficult? Try these video lessons and learn fast.
                Tuning:    Standard

Intro
G -----------------------------------------------|
D -------1-1x--------------------1-1x------------|
A -------------1-1x--4-4x--------------1-1x--4~--|
D -4-4x--------------------4-4x------------------|

Verse
G ------------------------------------------|
D ------------------------------------------|
A -------------------33333333-44444444------|
D -44444444-11111111------------------------|

Chorus Intro
G ---------------|
D ---------------|
A --1-1x---4-4x--|
D ---------------|

Chorus
G -------------------------------------------|
D -1-1x--------------------1-1x--------------|
A -------1-1x--4-4x--------------1-1x--4-4x--|
D -------------------4-4x--------------------|

Post Chorus
G -----------------------------------------------------------------|
D ----------1-1-1-1x----------------------------1-1-1-1x-----------|
A -------------------1-1-1-1x-4-4-4-4x-------------------1-1-1-4~--|
D -4-4-4-4x----------------------------4-4-4-4x--------------------|

Bridge
G --------------------------------------------------------------------|
D -------------------1-1~---------------------1-1~--------------------|
A -1-1~--4-4~---------------1-1~--4-4~---------------1-1~---4-4~------|
D -------------4-4~---------------------4-4~---------------------4-4--|


Play in this order:

Intro

2x:
Verse 4x
Chrous Intro
Chorus
Post Chorus

(Short Guitar Solo, then...)
Bridge
Chorus
Intro
Post Chorus
            
Tabs too difficult? Try these video lessons and learn fast.


comments powered by Disqus
↑ Back to top | Tablatures and chords are parodies/interpretations of the original songs. You may use it for private study, scholarship, research or language learning purposes only