» » »

Headset Bass tabs (ver.1)

Artists:  A B C D E F G H I J K L M N O P Q R S T U V W X Y Z # 

Headset Bass tabs (ver.1)

Avril Lavigne
Rating:
0/5 (0 votes)

Hard to play? Try these video lessons and learn fast.
                Avril Lavigne
Headset
2001 Bsides

Key: A

Tuning: Drop D


Intro:
G|----------|-------------------------|---------------------------|
D|----------|-------------------------|---------------------------|
A|----------|-------------------------|-4--4--------------5-5-5---|
D|-0-0--2-2-|-7--7--6-6-6-0--0--2-2-2-|-------2-2-2-0--0--------0-|
                        x2


Verses:
G|-------------------------|-------------------------|------|
D|-------------------------|-------------------------|------|
A|-------------------------|-4--4--------------------|------|
D|-7--7--6-6-6-0--0--2-2-2-|-------2-2-2-0--0--2-2-2-|-4--0-|
            x2


Chorus:
G|-------------------------|-------------------------|------------------|
D|-------------------------|-------------------------|------------------|
A|-------------------------|-4--4--------------------|------------------|
D|-7--7--6-6-6-0--0--2-2-2-|-------2-2-2-0--0--2-2-2-|-4--4--2-2-2-0--0-|
            x2

Bridge:
G|-------------------------|-------------------------|------------------|
D|-------------------------|-------------------------|------------------|
A|-------------------------|-4--4--------------------|------------------|
D|-7--7--6-6-6-0--0--2-2-2-|-------2-2-2-0--0--2-2-2-|-4--4--2-2-2-0--0-|
            x2
            
Hard to play? Try these video lessons and learn fast. | Correct




comments powered by Disqus
↑ Back to top | Tablatures and chords are parodies/interpretations of the original songs. You may use it for private study, scholarship, research or language learning purposes only