» » »

Avril Lavigne, Girlfriend Tabs (ver.4)

Artists:  A B C D E F G H I J K L M N O P Q R S T U V W X Y Z # 

Girlfriend Tabs (ver.4)

Avril Lavigne Tabs
 Rating:
4/5 (4 votes)
Girlfriend lessons Tabs too difficult? Try these video lessons and learn fast
1
                Girlfriend by Avril Lavigne , Created By Jack Dunkerley (Punk 2k6)

Right this is Avril's lastest single and i think it is pretty good to be honest. it aint 
hard either so enjoy =D


Intro [Just Avril singing]

Verse

E--------------------------------------------------------------------|
B--------------------------------------------------------------------|
G-77-777-777-777-----------------------------------------------------|
D-xx-xxx-xxx-xxx--77-777-777-777--99-999-999-999-55-555-555-555---X2-|
A-55-555-555-555--77-777-777-777--99-999-999-999-55-555-555-555------|
E-----------------55-555-555-555--77-777-777-777-33-333-333-333------|

PreChorus

E----------------------------------------------------------------------|
B----------------------------------------------------------------------|
G----------------------------------------------------------------------|
D--9999999999999999-4444444444444444-7777777777777777-5555555555555555-|
A--9999999999999999-4444444444444444-7777777777777777-5555555555555555-|
E--7777777777777777-2222222222222222-5555555555555555-3333333333333333-|

Chorus

E-------------------------------------------------|
B-------------------------------------------------|
G--77--------------------55-----------------------|
D--77-7-77-99--5-55--X3--55-33-5-5555555----------|[This whole part is X2]
A--55-7-77-99--5-55------33-44-5-5555555----------|
E-----5-55-77--3-33---------22-3-3333333----------|

then repeat the verse, prechorus and chorus. it then goes into a bridge whihc is just 
drums. then just finish off the song by repeating the chorus riff plenty of times.

Hope you like my tab, i'm pretty sure its 100% right but if you have any improvements 

Adios people
            
Submit corrections

comments powered by Disqus
↑ Back to top | Avril Lavigne Tabs for Girlfriend. Lyrics for acoustic guitar and electric guitar. 1 Tablatures and chords are parodies/interpretations of the original songs. You may use it for private study, scholarship, research or language learning purposes only