» » »

Avril Lavigne, Freak Out Tabs (ver.7)

Artists:  A B C D E F G H I J K L M N O P Q R S T U V W X Y Z # 

Freak Out Tabs (ver.7)

Avril Lavigne Tabs
 Rating:
4/5 (4 votes)
Freak Out lessons Tabs too difficult? Try these video lessons and learn fast
                Drop D Tuning
  -------- Palm Mute This Part ---------   switch between pickups
                                           for effect                 
e|----------------6-------------------------------------------------|
B|-----6---------------------6--------------------------------------|
G|---8---8------8---8------8---8------------------------------------|
D|-----------------------------------------1------------------------|
A|-6--6-6--6--6--6-6--6--6--6-6--6---6-6---1------------------------|
D|-----------------------------------------1------------------------|

e|------------------------------------------------------------------|
B|------------------------------------------------------------------|
G|-------8/10\8---8/10\8---8/10\8---10/12--10\8---------------------|
D|-1-1----------3--------6--------6---------------------------------|
A|-1-1---6/8\6--3-6/8\6--6-6/8\6--6-8/10---8\6----------------------|
D|-1-1----------3--------6--------6---------------------------------|

e|------------------------------------------------------------------|
B|-----8/9----------------------------------------------------------|
G|-----------8/10\8---8/10\8---10/12--10\8--------------------------|
D|-1-1-----3--------6--------6--------------------------------------|
A|-1-1-6/8-3-6/8\6--6-6/8\6--6--8/10---8\6--------------------------|
D|-1-1-----3--------6--------6--------------------------------------|
  Palm Mute Verses
e|------------------------------------------------------------------|
B|------------------------------------------------------------------|
G|------------------------------------------------------------------|
D|1-1---3-3---6-6---6-6---------------------------------------------|
A|1-1---3-3---6-6---6-6---------------------------------------------|
D|1-1-1-3-3-3-6-6-6-6-6---------------------------------------------|
  Pre Chorus
e|------------------------------------------------------------------|
B|------------------------------------------------------------------|
G|-------------------3-3--------------------------------------------|
D|3--3--3--3-5--6-6--3-3--------------------------------------------|
A|3--3--3--3-5--6-6--1-1--------------------------------------------|
D|3--3--3--3-5--6-6-------------------------------------------------|
  Chorus                                   Repeat Chorus
e|------------------------------------------------------------------|
B|------------------------------------------------------------------|
G|--------3-3-3-3-5-5-8-8-------------------------------------------|
D|1-1-1-1-3-3-3-3-5-5-8-8-6-6-6-------------------------------------|
A|1-1-1-1-1-1-1-1-3-3-6-6-6-6-6-------------------------------------|
D|1-1-1-1-----------------6-6-6-5-6-5-3-----------------------------|


thanks
            
Submit corrections

comments powered by Disqus
↑ Back to top | Avril Lavigne Tabs for Freak Out. Lyrics for acoustic guitar and electric guitar. Tablatures and chords are parodies/interpretations of the original songs. You may use it for private study, scholarship, research or language learning purposes only