» » »

Avril Lavigne, Freak Out Tabs (ver.3)

Artists:  A B C D E F G H I J K L M N O P Q R S T U V W X Y Z # 

Freak Out Tabs (ver.3)

Avril Lavigne Tabs
 Rating:
4/5 (4 votes)
Freak Out lessons Tabs too difficult? Try these video lessons and learn fast
1
                                    ***************************
                     Avril Lavigne-Freak Out
                    ***************************

Song Title: Freak out

Tuning: Drop D (DADGBE)


Intro (both guitars aligned for timing):


Guitar 1

e-------------------------------------------------------------|
B-------------------------------------------------------------|
G-------------------------------------------------------------|
D---1-1----------3-3----------6-6----------6-6----------------|   x2
A---1-1----------3-3----------6-6----------6-6----------------|
D---1-1----------3-3----------6-6----------6-6----------------|

Guitar 2

e-------------------------------------------------------------|
B-------------------------------------------------------------|
G-------8h10-8--------8h10-8-------8h10-8--------10h12-10/8---|   x2
D-------------------------------------------------------------|
A-------------------------------------------------------------|
D-------------------------------------------------------------|


Verse (both guitars):

(note:If you're playing without a drummer, it will give you a better sound if
 you add some dead, left hand muted notes in between the palm muted notes.)

(note:On the second line of the verse, the last note (B) may sound wrong when
 playing solo, but when you listen to the song, it's the right note.)

e------------------------------------------|
B------------------------------------------|
G------------------------------------------|
D--1-1------3-3------6-6------6-6------3---|
A--1-1------3-3------6-6------6-6------3---|
D--1-1------3-3------6-6------6-6------3---|
   ...      ...      ...      ...      .
e------------------------------------------|
B------------------------------------------|
G------------------------------------------|
D--1-1------3-3------6-6------6-6------9---|
A--1-1------3-3------6-6------6-6------9---|
D--1-1------3-3------6-6------6-6------9---|
   ...      ...      ...      ...

e------------------------------------------|
B------------------------------------------|
G------------------------------------------|
D--1-1------3-3------6-6------6-6------3---|
A--1-1------3-3------6-6------6-6------3---|
D--1-1------3-3------6-6------6-6------3---|
   ...      ...      ...      ...      .

e------------------------------------------|
B------------------------------------------|
G------------------------------------------|
D--1-1------3-3------6-6------6-6-6-6-6-6--|
A--1-1------3-3------6-6------6-6-6-6-6-6--|
D--1-1------3-3------6-6------6-6-6-6-6-6--|
   ...      ...      ...      ...

Pre Chorus (both guitars):

I'm alright, I'm Fine...
e------------------------------------------|
B------------------------------------------|
G------------------------------------------|
D--3-3-3-3-3-3-x-5--6-6----8-8-------------|
A--3-3-3-3-3-3-x-5--6-6----8-8-------------|
D--3-3-3-3-3-3-x-5--6-6----8-8-------------|

Chorus (both guitars):

(note:strum the notes, dont just hit them once...also, every note has 4
 beats, except the 3rd and 4th note (C and Eb), which have 2 beats each.
 Also, on the first line of the chorus, the 5th note (G#) is kinda long,
 and the last note (Bb) is very short. On the second line, they're both
 beats each. confused yet? heh..okay.. [you'll get it when you listen to
 the song])

I'm gonna live my life...
e-------------------------------------------|
B-------------------------------------------|
G-------------------------------------------|
D--1---8---10---13---6----8-----------------|
A--1---8---10---13---6----8-----------------|
D--1---8---10---13---6----8-----------------|


also...at the end, theres another chorus, and Avril is the only one playing (the 
anyway). She's playing acoustic (standard tuning). Here are her chords.

e--6----1-----------------------------------|
B--6----1-----------------------------------|
G--8----3-----------------------------------|
D--8----3-----------------------------------|
A--6----1-----------------------------------|
E--6----1-----------------------------------|


Tab Legend:

h-hammer on
...-palm mute
/-slide

thats about it...

ok...please rate!

Questions? Comments?
Hit me up
            
Submit corrections

comments powered by Disqus
↑ Back to top | Avril Lavigne Tabs for Freak Out. Lyrics for acoustic guitar and electric guitar. 1 Tablatures and chords are parodies/interpretations of the original songs. You may use it for private study, scholarship, research or language learning purposes only