» » »

Avril Lavigne, Freak Out Chords (ver.2)

Artists:  A B C D E F G H I J K L M N O P Q R S T U V W X Y Z # 

Freak Out Chords (ver.2)

Avril Lavigne Tabs
 Rating:
4/5 (4 votes)
Freak Out lessons Tabs too difficult? Try these video lessons and learn fast
1
                
Avril Lavigne
Freak Out(Live)
Bonez Tour Osaka, Japan 2005


Intro: D-Em-G(x2)

D      Em           G           D
Try to tell me what I shouldn't do
           Em      G
You should know by now,
                  D
I won't listen to you
      Em            G               D
Walk around with my hands up in the air
      Em      G
Cause I don't care

Refrain

      Em               G
Cause I'm alright, I'm fine
     A/C#              D
Just freak out, let it go


Chorus
                  A/C#
I'm gonna live my life
        Bm           D
I can't ever run and hide 
        G
I won't compromise 
                     D
Cause I'll never know
                   A/C#
I'm gonna close my eyes
       Bm                 D
I can't watch the time go by
        G
I won't keep it inside
A          D        Em-G
Freak out, let it go
                         D-Em-G
Just freak out, let it go

D                Em      G             D
You don't always have to do everything right
      Em         G
Stand up for yourself
             D
And put up a fight
     Em               G               D
walk around with your hands up in the air 
     Em        G
Like you don't care

(Repeat Refrain and Chorus)

Bridge:


     Bm      A         G         Bm        D
e|----0--|---0--|--0--3-2-0-|---0-------|-------|
B|-----3-|----3-|---3------3|----3------|-------|
G|---2---|--2---|-2---------|--2--------|-------|
D|-------|------|-----------|-----------|-------|
A|--2----|-0----|-----------|-2----2--4-|-5-----|
E|-------|------|3----------|-----------|-------|


     Em     F#       G           A/C#        
e|---------|--------|---------|----------|
B|---------|--------|---------|----------|
G|---------|--------|---------|----------|
D|-2pm-----|-4------|-5pm-----|-7pm------|
A|-2pm-----|-4------|-5pm-----|-4pm------|
E|-0pm-----|-2------|-3pm-----|-5pm------|

Bm-A
      G
On my own
       Bm-D
Let it go
Em              G
Yeah, yeah, yeah

(Just let me live my life)

e|-15-14-------15-14-------15-14-------15-14-----------|
B|-------15----------15----------15----------15--------|
G|----------14----------14----------14----------14-----|
D|-----------------------------------------------------|
A|-----------------------------------------------------|
E|-----------------------------------------------------|


Chorus 2

D              A/C#
just let me live my life
        Bm           D
I can't ever run and hide 
        G
I won't compromise 
                     D
Cause I'll never know
                   A/C#
I'm gonna close my eyes
       Bm                 D
I can't watch the time go by
        G
I won't keep it inside
A          D        Em-G
Freak out, let it go
                         D-Em-G
Just freak out, let it go



                        D-Em-G    
Gonna freak out, let it go
                        D-Em-G
Gonna freak out, let it go
            
Submit corrections

comments powered by Disqus
↑ Back to top | Avril Lavigne Chords for Freak Out. Lyrics for acoustic guitar and electric guitar. 1 Tablatures and chords are parodies/interpretations of the original songs. You may use it for private study, scholarship, research or language learning purposes only