» » »

Creative Captivity Tabs (ver.1)

Artists:  A B C D E F G H I J K L M N O P Q R S T U V W X Y Z # 

Creative Captivity Tabs (ver.1)

August Burns Red
Rating:
0/5 (0 votes)
Tabs too difficult? Try these video lessons and learn fast.
                August Burns Red - Creative Captivity (Rescue and Restore 2013)



This is the lead part only, I haven't gotten around to the rhythm section yet. If 
there are any mistakes, or you'd like to add to the tab, feel free to e-mail me :)

Enjoy!

Tuning: Drop C

Intro

e|---------------------------------------------------------------------------|
B|----------------------------10--------------------------------10-----------|
G|--11\9---------11\9------11----11\9--11\9--------11\9------11----11~-------|
D|-------9/11---------9/11------------------9/11--------9/11-----------------| X2
A|------------9----------------------------------9---------------------------|
E|---------------------------------------------------------------------------|

Same riff, but the timing is a little different

e|---------------------------------------------------------------------------|
B|----------------------------10-------------------------------10------------|
G|--11\9---------11\9------11----11-9/11\9--------11\9------11----11~--------|
D|-------9/11---------9/11-----------------9/11--------9/11------------------| x4
A|------------9---------------------------------9----------------------------|
E|---------------------------------------------------------------------------|

Verse 1 (Played Twice)

e|----------------------------------14-------|
B|-------------------15-12----14-15----15----|
G|--6/7-----9\7------------11----------------|
D|------9-------9----------------------------|
A|--------9-------9--------------------------|
E|-------------------------------------------|

e|--------------------------------------------12--------|
B|-----10-----------10-10-10/12------------10----10-----|
G|---9----11--9h11---------------6/7-7---9--------------|
D|------------------7-7-7-7/9---------------------------|
A|-------------------------------4/5-5------------------|
E|------------------------------------------------------|

e|----------------------------------------------------------------|
B|----------------12------------------------------7-----10--------|
G|--11\9/11----------11-14-----------------9------6-x8--9--x16----|
D|----------11-12------------------------7---7----4-----7---------|
A|----------------------------------------------------------------|
E|--------------------------14-16-14-16---------------------------|

Interlude

e|--14t--19t--14t--------------------------|
B|----------------14t--12t--15t--14~-------|
G|-----------------------------------------|
D|-----------------------------------------|
A|-----------------------------------------|
E|-----------------------------------------|

Repeat Intro riff two times

Verse 2

e|--------------------------9-10-9-----12----12-14-----12---------9-10-9--|
B|---------10------------10---------------10-------14-----10--------------|
G|--11\9------11--11\9--------------9------------------------9-11---------|
D|-------9-------------9--------------------------------------------------|
A|------------------------------------------------------------------------|
E|------------------------------------------------------------------------|

e|--------------------------9-10-9-----12----12-14--17----------14-17-21-17-19~--|
B|---------10------------10---------------10-----------17----17------------------|
G|--11\9------11--11\9--------------9---------------------14---------------------|
D|-------9-------------9---------------------------------------------------------|
A|-------------------------------------------------------------------------------|
E|-------------------------------------------------------------------------------|


Couldn't figure out the clean parts here, too much delay.

Interlude 2 (Play two times)

e|------------15\14-----------------9----------9----------------9----------9-----------|
B|------15----------15-----------12---12----12---12-12-12----12---12----12---12-12-12--|
G|---14----14----------14-----11---------11---------------11---------11----------------|
D|-------------------------------------------------------------------------------------|
A|-------------------------------------------------------------------------------------|
E|-------------------------------------------------------------------------------------|

e|---------14----------14-----------------17----------17---------------------|
B|------15----15----15----15-15-15-----15----15----15----15-15-15------------|
G|---14----------14-----------------14----------14---------------------------|
D|---------------------------------------------------------------------------|
A|---------------------------------------------------------------------------|
E|---------------------------------------------------------------------------|

e|---------17----------17----------------17----------17----------------------|
B|------15----15----15----15-15-15----15----15----15----15-15-15-------------|
G|---16----------16----------------16----------16----------------------------|
D|---------------------------------------------------------------------------|
A|---------------------------------------------------------------------------|
E|---------------------------------------------------------------------------|

e|--------17----------17----------------17----------17-----------------------|
B|-----15----15----15----15-15-15----15----15----15----15-15-15--------------|
G|--14----------14----------------14----------14-----------------------------|
D|---------------------------------------------------------------------------|
A|---------------------------------------------------------------------------|
E|---------------------------------------------------------------------------|

Chorus "Rescue the beauty that's lost..."


e|--------9----------9-----------------14----------14------------------------|
B|-----12---12----12---12-12-12-----15----15----15----15-15-15---------------|
G|--11---------11----------------14----------14------------------------------|
D|---------------------------------------------------------------------------|x2
A|---------------------------------------------------------------------------|
E|---------------------------------------------------------------------------|


e|--------9----------9------------------17----------17-----------------------|
B|-----12---12----12----15-15-15-----15----15----15----15-15-15--------------|
G|--11---------11-----------------14----------14-----------------------------|
D|---------------------------------------------------------------------------|
A|---------------------------------------------------------------------------|
E|---------------------------------------------------------------------------|

e|--------17----------17-----------------14----------14----------------------|
B|-----15----15----15----15-15-15-----15----15----15----15-15-15-------------|
G|--16----------16-----------------14----------14----------------------------|
D|---------------------------------------------------------------------------|
A|---------------------------------------------------------------------------|
E|---------------------------------------------------------------------------|

Xylophone solo!

Outro "We will fight to save this..." (strum each chord 16 times)

e|-------------------------------|
B|---7--7--7--7--7--7--8--15-----|
G|---7--6--7--6--7--6--7--14-----|
D|---7--4--7--4--7--4--5--12-----|
A|---5-----5-----5---------------|
E|-------------------------------|



************************************

| /   slide up
| \   slide down
| h   hammer-on
| p   pull-off
| ~   vibrato
| +   harmonic
| x   Mute note
| b   Bend
| pb  Pre-bend
| br  Bend release
| pbr Pre-bend release
| brb Bend release bend

************************************
            
Tabs too difficult? Try these video lessons and learn fast.


comments powered by Disqus
↑ Back to top | Tablatures and chords are parodies/interpretations of the original songs. You may use it for private study, scholarship, research or language learning purposes only