» » »

Avril Lavigne, 03 Complicated Tabs (ver.3)

Artists:  A B C D E F G H I J K L M N O P Q R S T U V W X Y Z # 

03 Complicated Tabs (ver.3)

Avril Lavigne Tabs
 Rating:
3.4/5 (10 votes)
03 Complicated lessons Tabs too difficult? Try these video lessons and learn fast
                Intro  (Guitar 1)
e--1--1--1-1-1-1--1---1---1---0-0-0--1p0-----------------|
B--3--3--3-3-3-3--3---1---1---1-1-1--1-------------------|
G--2--2--2-2-2-2--2---2---2---2-2-2--2-------------------|
D--0--0--0-0-0-0--0---3---3---2-2-2--2-------------------|
A-----------------------------0-0-0--0-------------------|
E--------------------------------------------------------|

(Guitar 2)
e--------------------------------------------------------|
B--------------------------------------------------5p4---|
G--5/7^------5--2--/5--0----2-/-5--5/7^----5---5---------|
D--------------------------------------------------------|
A--------------------------------------------------------|
E--------------------------------------------------------|

(Guitar 3)
e--------------------------------------------------------|
B--------------------------------------------------------|
G--7----2--5----2---5---5--------------------------------|
D--7-----------------------------------------------------|
A--5-----------------------------------------------------|
E--------------------------------------------------------|

(Guitar 2)
e--------------------------------------------------------|
B--------------------------------------------------------|
G--14-\----14-14--10--12--14-----------------------------|
D---x-------x--x---x---x---x-----12--14/15\14------------|
A--12-\----12-12---8--10--12-----------------------------|
E--------------------------------------------------------|


e--------------------------------------------------------|
B--------------------------------------------------------|
G--14-\----14-14--10--12--14-----------------------------|
D---x-------x--x---x---x---x-----14-/15\14--/15----------|
A--12-\----12-12---8--10--12-----------------------------|
E--------------------------------------------------------|

(Guitar 3)
e---------------------------------13--12-----------------|
B-------------13^----------------------------------------|
G--------------------------------------------------------|
D-----------------------15--15---------------------------|
A--12----15----------------------------------------------|
E--------------------------------------------------------|


e--------------------------------------------------------|
B-------------13^----------------------------------------|
G--------------------------------------------------------|
D-----------------------15--15---------------------------|
A--12----15----------------------------------------------|
E---------------------------------12----/13--------------|

Verse (Guitar 2)
e--1--1--1-1--1-1--1-1---1--1--1-1--1-1--1-1-------------|
B--1--1--1-1--1-1--1-1---3--3--3-3--3-3--3-3-------------|
G--2--2--2-2--2-2--2-2---2--2--2-2--2-2--2-2-------------|
D--3--3--3-3--3-3--3-3---0--0--0-0--0-0--0-0-------------|
A--------------------------------------------------------|
E--------------------------------------------------------|
 chill out..


e--1--1--1-1--1-1--1-1---1--1--1-0--0-1-1----------------|
B--1--1--1-1--1-1--1-1---1--1--1-1--1-1-1----------------|
G--3--3--3-3--3-3--3-3---0--0--0-0--0-0-0----------------|
D--3--3--3-3--3-3--3-3---2--2--2-2--2-2-2----------------|
A--1--1--1-1--1-1--1-1---3--3--3-3--3-3-3----------------|
E--------------------------------------------------------|

Pre-Chorus  (Guitar 1)
e--1--1--1-1--1-1--1--1--1-1--1-1--1--1--1-1--1-1---0----|
B--1--1--1-1--1-1--3--3--3-3--3-3--1--1--1-1--1-1---1----|
G--3--3--3-3--3-3--2--2--2-2--2-2--3--3--3-3--3-3---0----|
D--3--3--3-3--3-3--0--0--0-0--0-0--3--3--3-3--3-3---2----|
A--1--1--1-1--1-1------------------1--1--1-1--1-1---3----|
E--------------------------------------------------------|
somebody else..

Pre-Chorus  (Guitar 2, with distortion)
e--------------------------------------------------------|
B--------------------------------------------------------|
G--3----3---3--3----7----7---7--7---3----3---3--3---5----|
D--3----3---3--3----7----7---7--7---3----3---3--3---5----|
A--1----1---1--1----5----5---5--5---1----1---1--1---3----|
E--------------------------------------------------------|

Chorus
e--------------------------------------------------------|
B--------------------------------------------------------|
G--------------------------------------------------------|
D------7----7------3----3------3----3----5----3--5-------|
A--3/5---5-----5\1---1-----1/3---3-----3---3-------------|
E--------------------------------------------------------|
why'd you have to go..

Post-Chorus  (Guitar 1)
e--------------------------------------------------------|
B--------------------------------------------------------|
G---------------------------3----------------------------|
D--5--5--5--5--5--5--5--5---3----------------------------|
A--5--5--5--5--5--5--5--5---1----------------------------|
E--3--3--3--3--3--3--3--3--------------------------------|
honestly promise me..

Post-Chorus  (Guitar 2)
e--------------------------------------------------------|
B---------------3----5-----6-----------------------------|
G--3--3----5---------------------------------------------|
D--------------------------------------------------------|
A--------------------------------------------------------|
E--------------------------------------------------------|

Riff 1 (Guitar 2)
e--------------------------------------------------------|
B--------------------------------------------------------|
G--------------------------------8-----------------------|
D--7---8--8--7---7--7---8---7-------7--10---8------------|
A--------------------------------------------------------|
E--------------------------------------------------------|

Riff 2 (Guitar 2)
e--------------------------------------------------------|
B--6--6-6----6---8-6-----6-------------------------------|
G--5--5-5----7--------7-------7---5h7p5h7p5h7p5h7p5h7p5--|
D--------------------------------------------------------|
A--------------------------------------------------------|
E--------------------------------------------------------|

Riff 3
e--/13--13\------------/13--13\--------------------------|
B--/13--13\-----10\----/13--13\-----10\------------------|
G---------------10\-----------------10\------------------|
D--------------------------------------------------------|
A--------------------------------------------------------|
E--------------------------------------------------------|

Bridge
e--------------------------------------------------------|
B-------11--10--------11--10--------11--10---------------|
G--10------------10------------10------------10----------|
D------------------------------------------------12--10--|
A--------------------------------------------------------|
E--------------------------------------------------------|
            
Submit corrections

comments powered by Disqus
↑ Back to top | Avril Lavigne Tabs for Complicated. Lyrics for acoustic guitar and electric guitar. Tablatures and chords are parodies/interpretations of the original songs. You may use it for private study, scholarship, research or language learning purposes only