» » »

Avril Lavigne, Bad Girl Tabs (ver.1)

Artists:  A B C D E F G H I J K L M N O P Q R S T U V W X Y Z # 

Bad Girl Tabs (ver.1)

Avril Lavigne Tabs
 Rating:
4/5 (4 votes)
Bad Girl lessons Tabs too difficult? Try these video lessons and learn fast
1
                Avril Lavigne
Bad Girl feat. Marylin Manson
Avril Lavigne
2013 Epic Records

Key: F

Tuning: Drop D


Intro:

Guitar:
e|------------------------------------|
B|------------------------------------|
G|-7-------7---------10-----------5-5-|
D|-7-0-0-0-7-0-0-0-0-10-0-0-0-5-5-5-5-|
A|-5-0-0-0-5-0-0-0-0--8-0-0-0-5-5-3-3-|
D|---0-0-0---0-0-0-0----0-0-0-5-5-----|

e|---------------------------------|
B|---------------------------------|
G|-7-------7---------------------5-|
D|-7-0-0-0-7-0-0-0-0-5-3-5-6-5-3-5-|
A|-5-0-0-0-5-0-0-0-0-5-3-5-6-5-3-3-|
D|---0-0-0---0-0-0-0-5-3-5-6-5-3---|


Verses:

Bass: Hey Hey I like you to walk all over me
G|------------------------------|
D|------------------------------|
A|-5------5------8----------3-3-| x3
D|---0--0---0--0---0--0-5-5-----|

But I want pretty please please
G|---------------|
D|---------------|
A|-5------5------|
D|---0--0---0--0-|

You know you know you Know I'm-
G|---------------|
D|---------------|
A|-------------3-|
D|-5-3-5-6-5-3---|

Guitar:
e|---------------|
B|---------------|
G|-------------5-|
D|-5-3-5-6-5-3-5-|
A|-5-3-5-6-5-3-3-|
D|-5-3-5-6-5-3---|

Guitar: -crazy, I just want to be your baby
e|-------------------------------|
B|-------------------------------|
G|-7------7------10----------5-5-|
D|-7-0--0-7-0--0-10-0--0-5-5-5-5-|
A|-5-0--0-5-0--0-8--0--0-5-5-3-3-| x3
D|---0--0---0--0----0--0-5-5-----|

-hate me...
e|---------------|
B|---------------|
G|-7------7------|
D|-7-0--0-7-0--0-|
A|-5-0--0-5-0--0-|
D|---0--0---0--0-|

e|---------------|
B|---------------|
G|-------------5-|
D|-5-3-5-6-5-3-5-|
A|-5-3-5-6-5-3-3-|
D|-5-3-5-6-5-3---|

Refrain: Miss me miss me now you wanna miss me
palm mute

Chorus: x2

choke me because I said so
e|-----------------|
B|-----------------|
G|-----------------|
D|-0-0-0-0-0-0-0-0-|
A|-0-0-0-0-0-0-0-0-|
D|-0-0-0-0-0-0-0-0-|

Choke me and feed my ego
e|-----------------|
B|-----------------|
G|-----------------|
D|-3-3-3-3-3-3-3-3-|
A|-3-3-3-3-3-3-3-3-|
D|-3-3-3-3-3-3-3-3-|

I'll be a bad girl don't you know
e|---------------------|
B|---------------------|
G|---------------------|
D|-5-5-5-5-8-8-10-10---|
A|-5-5-5-5-8-8-10-10---|
E|-5-5-5-5-8-8-10-10---|

Don't tell me what to do
e|-----------------------|
B|-----------------------|
G|---------------------5-|
D|-0-0-0-0-5-3-5-6-5-3-5-|
A|-0-0-0-0-5-3-5-6-5-3-3-|
E|-0-0-0-0-5-3-5-6-5-3---|

Miss me miss me now you wanna miss me
palm mute

Post Chorus:
e|---------------|
B|---------------|
G|-7------7------|
D|-7-0--0-7-0--0-|
A|-5-0--0-5-0--0-|
D|---0--0---0--0-|

e|---------------|
B|---------------|
G|-------------5-|
D|-5-3-5-6-5-3-5-|
A|-5-3-5-6-5-3-3-|
D|-5-3-5-6-5-3---|

Bridge:

Bass: I'll be a bad girl...
G|-----------------|
D|-----------------|
A|-5-5-5-5-5-5-5-5-| x2
D|-----------------|

G|-----------------------------------------|
D|-12-12-12-12-10-10-10-10-9-9-9-9-8-8-8-8-|
A|-----------------------------------------| x2
D|-----------------------------------------|

G|---------------------------------|
D|---------------------------------|
A|-5-5-5-5-3-3-3-3-2-2-2-2-1-1-1-1-|
D|---------------------------------|
            
Submit corrections

comments powered by Disqus
↑ Back to top | Avril Lavigne Tabs for Bad Girl. Lyrics for acoustic guitar and electric guitar. 1 Tablatures and chords are parodies/interpretations of the original songs. You may use it for private study, scholarship, research or language learning purposes only