» » »

Avril Lavigne, Alice Underground Bass tabs (ver.2)

Artists:  A B C D E F G H I J K L M N O P Q R S T U V W X Y Z # 

Alice Underground Bass tabs (ver.2)

Avril Lavigne Tabs
Rating:
0/5 (0 votes)
Alice Underground lessons Tabs too difficult? Try these video lessons and learn fast
                Avril Lavigne
Alice Underground
Goodbye Lullaby
2011 RCA Records

Key: G, C

Tuning: Standard EADG

Intro:
         G
G|-----------------|
D|-----------------|
A|-----------------| x4
E|-3-3-3-3-3-3-3-3-|


Verse 1:

Tripping out I'm spinning around
         G
G|-----------------|
D|-----------------|
A|-----------------| x4
E|-3-3-3-3-3-3-3-3-|

yeah I fell down
          F                  G
G|-----------------|------------------|
D|-----------------|------------------|
A|-----------------|------------------|
E|-1-1-1-1-1-1-1-1-|-3-3-3-3-3-3-3-3--|
         x2                  x2

I'm freaking out where Am I now
         G
G|-----------------|
D|-----------------|
A|-----------------| x4
E|-3-3-3-3-3-3-3-3-|

It can't stop me now ohhh
          F                        G
G|-----------------|------|------------------|
D|-----------------|------|------------------|
A|-----------------|-hold-|------------------|
E|-1-1-1-1-1-1-1-1-|------|-3-3-3-3-3-3-3-3--|
                                   x4

Chorus 1:
Ohh
          C                 Am
G|-----------------|-----------------|
D|-----------------|-----------------|
A|-3-3-3-3-3-3-3-3-|-0-0-0-0-0-0-0-0-|
E|-----------------|-----------------|

I'll get by
          G                 F
G|-----------------|-----------------|
D|-----------------|-----------------|
A|-----------------|-----------------|
E|-3-3-3-3-3-3-3-3-|-1-1-1-1-1-1-1-1-|

Ohh
          C                 Am
G|-----------------|-----------------|
D|-----------------|-----------------|
A|-3-3-3-3-3-3-3-3-|-0-0-0-0-0-0-0-0-|
E|-----------------|-----------------|

I'll survive
          G                 F
G|-----------------|-----------------|
D|-----------------|-----------------|
A|-----------------|-----------------|
E|-3-3-3-3-3-3-3-3-|-1-1-1-1-1-1-1-1-|

When the worlds crashing down
          C                 Am
G|-----------------|-----------------|
D|-----------------|-----------------|
A|-3-3-3-3-3-3-3-3-|-0-0-0-0-0-0-0-0-|
E|-----------------|-----------------|

I'll just turn myself around
          G
G|-----------------|
D|-----------------|
A|-----------------|
E|-3-3-3-3-3-3-3-3-|
          x2

Ohhh
          C                 Am
G|-----------------|-----------------|
D|-----------------|-----------------|
A|-3-3-3-3-3-3-3-3-|-0-0-0-0-0-0-0-0-|
E|-----------------|-----------------|

And I won't cry
          G         Dm
G|-----------------|---|
D|-----------------|---|
A|-----------------|-5-|
E|-3-3-3-3-3-3-3-3-|---|


Post Chorus:
         G
G|-----------------|
D|-----------------|
A|-----------------| x2
E|-3-3-3-3-3-3-3-3-|


Verse 2:
I'll play the game but I can't stay
         G
G|-----------------|
D|-----------------|
A|-----------------| x4
E|-3-3-3-3-3-3-3-3-|

I'm not gonna change
          F                  G
G|-----------------|------------------|
D|-----------------|------------------|
A|-----------------|------------------|
E|-1-1-1-1-1-1-1-1-|-3-3-3-3-3-3-3-3--|
         x2                  x2

I'll win the race Keep up with the pace
         G
G|-----------------|
D|-----------------|
A|-----------------| x4
E|-3-3-3-3-3-3-3-3-|

You can't get it my way no
          F                        G
G|-----------------|------|------------------|
D|-----------------|------|------------------|
A|-----------------|-hold-|------------------|
E|-1-1-1-1-1-1-1-1-|------|-3-3-3-3-3-3-3-3--|
                                   x4


(Repeat Chorus 1)


Bridge:
I found myself in wonderland
   Dm  Am  C   G
G|---|---|---|---|
D|---|---|---|---|
A|-5-|-0-|-3-|---|
E|---|---|---|-3-|

Get back on my feet again
   Dm  Am  C   G
G|---|---|---|---|
D|---|---|---|---|
A|-5-|-0-|-3-|---|
E|---|---|---|-3-|

Is this real? Is the pretend?
   Dm  Am  C   G
G|---|---|---|---|
D|---|---|---|---|
A|-5-|-0-|-3-|---|
E|---|---|---|-3-|

I'll take a stand until the end
   Dm  Am  C   G
G|---|---|---|---|
D|---|---|---|---|
A|-5-|-0-|-3-|---|
E|---|---|---|-3-|


Chorus 2:
Ohh
          C                 Am
G|-----------------|-----------------|
D|-----------------|-----------------|
A|-3-3-3-3-3-3-3-3-|-0-0-0-0-0-0-0-0-|
E|-----------------|-----------------|

I'll get by
          G                 F
G|-----------------|-----------------|
D|-----------------|-----------------|
A|-----------------|-----------------|
E|-3-3-3-3-3-3-3-3-|-1-1-1-1-1-1-1-1-|

Ohh
          C                 Am
G|-----------------|-----------------|
D|-----------------|-----------------|
A|-3-3-3-3-3-3-3-3-|-0-0-0-0-0-0-0-0-|
E|-----------------|-----------------|

I'll survive
          G                 F
G|-----------------|-----------------|
D|-----------------|-----------------|
A|-----------------|-----------------|
E|-3-3-3-3-3-3-3-3-|-1-1-1-1-1-1-1-1-|

When the worlds crashing down
          C                 Am
G|-----------------|-----------------|
D|-----------------|-----------------|
A|-3-3-3-3-3-3-3-3-|-0-0-0-0-0-0-0-0-|
E|-----------------|-----------------|

I'll just turn myself around
          G
G|-----------------|
D|-----------------|
A|-----------------|
E|-3-3-3-3-3-3-3-3-|
          x2

Ohhh
          C                 Am
G|-----------------|-----------------|
D|-----------------|-----------------|
A|-3-3-3-3-3-3-3-3-|-0-0-0-0-0-0-0-0-|
E|-----------------|-----------------|

And I won't cry
          G
G|-----------------|
D|-----------------|
A|-----------------| x2
E|-3-3-3-3-3-3-3-3-|


(Repeat Chorus 1)
            

comments powered by Disqus
↑ Back to top | Avril Lavigne Bass for Alice Underground. Lyrics for acoustic guitar and electric guitar. Tablatures and chords are parodies/interpretations of the original songs. You may use it for private study, scholarship, research or language learning purposes only