» » »

I Could Be The One Tabs (ver.1)

Artists:  A B C D E F G H I J K L M N O P Q R S T U V W X Y Z # 

I Could Be The One Tabs (ver.1)

Avicii
Rating:
0/5 (0 votes)

Hard to play? Try these video lessons and learn fast.
                -------------------------------------------------------------------------------
-------------------------------------------------------------------------------
Just the main riff, will tab more of the song when I get a chance.


Tuning:Standard

Main Riff:

e|---------------------------------------------------------------------------|
B|----------15-14--------------------12-10-----------------------------------|
G|---14-----------14-----14-16-14----------13-11-------14-13------11---------|
D|------16------------16-------------------------11----------14-11-----------|
A|---------------------------------------------------------------------------|
E|---------------------------------------------------------------------------|

e|----------------------------------------------------14--12--------------------|
B|-------------15-14-------------------------------14-------14-12----15-14------|
G|------14----------14----14----16-14-13-11--14-13---------------14-------14--14|
D|-14-16---16---------16------------------11-----14----------------16-------16--|
A|------------------------------------------------------------------------------|
E|------------------------------------------------------------------------------|

e|--------------------------------------------------------------------------------|
B|-----------------------------------------15-14-------12-10----------------------|
G|-16-14-13-11---14-13-----11---------14--------14--14------13-11----14-13----11--|
D|------------11------14-11-----14-16---16--------16-------------11-------14-11---|
A|--------------------------------------------------------------------------------|
E|--------------------------------------------------------------------------------|
            
Hard to play? Try these video lessons and learn fast. | Correct




comments powered by Disqus
↑ Back to top | Tablatures and chords are parodies/interpretations of the original songs. You may use it for private study, scholarship, research or language learning purposes only