» » »

Avicii, Fade Into Darkness Tabs (ver.1)

Artists:  A B C D E F G H I J K L M N O P Q R S T U V W X Y Z # 

Fade Into Darkness Tabs (ver.1)

Avicii Tabs
Rating:
5/5 (2 votes)
Fade Into Darkness lessons Tabs too difficult? Try these video lessons and learn fast
                FADE INTO DARKNESS
Official Radio Edit
AVICII 

Made 4 guitar by JOSÉ LUCAS

Capo 2nd fret

Intro
E ||----------------0-|------------------||
B ||----------0---2---|------------------||
G ||*-----1-----1-----|-----1-----------*||
D ||*---2---2---------|---2---2-4-2-1-2-*||
A ||------------------|------------------||
E ||--0---0---0---0---|-0---0---0---0----||


E |----------------0-|-----------------|
B |----------0---2---|-----------------|
G |------1-----1-----|-----1-----------|
D |----2---2---------|---2---2-4-2-1-2-|
A |------------------|-----------------|
E |--0---------------|-0---------------|


E |----------------0-|-----------------|
B |----------0---2---|-----------------|
G |------1-----1-----|-----1-----------|
D |----2---2---------|---2---2-4-2-1-2-|
A |------------------|-----------------|
E |--0---------------|-0---------------|

Verse 1
E |----------------0-|-----------------|
B |----------0---2---|-----------------|
G |------1-----1-----|-----1-----------|
D |----2---2---------|---2---2-4-2-1-2-|
A |------------------|-----------------|
E |--0---------------|-0---------------|


E |----------------0-|-----------------|
B |----------0---2---|-----------------|
G |------1-----1-----|-----1-----------|
D |----2---2---------|---2---2-4-2-1-2-|
A |------------------|-----------------|
E |--0---------------|-0---------------|


E |----------------0-|-----------------|
B |----------0---2---|-----------------|
G |------1-----1-----|-----1-----------|
D |----2---2---------|---2---2-4-2-1-2-|
A |--4---------------|-2---------------|
E |------------------|-----------------|


E |----------------0-|-----------------|
B |----------0---2---|-----------------|
G |------1-----1-----|-----1-----------|
D |----2---2---------|---2---2-4-2-1-2-|
A |--0---------------|-0---------------|
E |------------------|-----------------|


E |----------------0-|-----------------|
B |----------0---2---|-----------------|
G |------1-----1-----|-----1-----------|
D |----2---2---------|---2---2-4-2-1-2-|
A |------------------|-----------------|
E |--0---------------|-0---------------|


E |----------------0-|-----------------|
B |----------0---2---|-----------------|
G |------1-----1-----|-----1-----------|
D |----2---2---------|---2---2-4-2-1-2-|
A |------------------|-----------------|
E |--0---------------|-0---------------|


E |----------------0-|-----------------|
B |----------0---2---|-----------------|
G |------1-----1-----|-----1-----------|
D |----2---2---------|---2---2-4-2-1-2-|
A |--4---------------|-2---------------|
E |------------------|-----------------|


E |----------------0-|-----------------|
B |----------0---2---|-----------------|
G |------1-----1-----|-----1-----------|
D |----2---2---------|---2---2-4-2-1-2-|
A |--0---------------|-0---------------|
E |------------------|-----------------|


E |----------------0-|-----------------|
B |----------0---2---|-----------------|
G |------1-----1-----|-----1-----------|
D |----2---2---------|---2---2-4-2-1-2-|
A |------------------|-----------------|
E |--2---------------|-4---------------|


E |----------------0-|-----------------|
B |----------0---2---|-----------------|
G |------1-----1-----|-----1-----------|
D |----2---2---------|---2---2-4-2-1-2-|
A |--0---------------|-2---------------|
E |------------------|-----------------|


E |----------------0-|---------------0-|
B |----------0---2---|---------0---2---|
G |------1-----1-----|-----1-----1-----|
D |----2---2---------|---2---2---------|
A |------------------|-----------------|
E |--0---------------|-0---------------|


E |----------------0-|-----------------|
B |----------0---2---|-----------------|
G |------1-----1-----|-----1-----------|
D |----2---2---------|---2---2---------|
A |------------------|-----------------|
E |--0---------------|-0-------0-------|


Chorus
E |----------------0-|-----------------|
B |----------0---2---|-----------------|
G |------1-----1-----|-----1-----------|
D |----2---2---------|---2---2-4-2-1-2-|
A |--4---4---4---4---|-2---2---2---2---|
E |------------------|-----------------|


E |----------------0-|-----------------|
B |----------0---2---|-----------------|
G |------1-----1-----|-----1-----------|
D |----2---2---------|---2---2-4-2-1-2-|
A |--0---0---0---0---|-0---0---0---0---|
E |------------------|-----------------|


E |----------------0-|-----------------|
B |----------0---2---|-----------------|
G |------1-----1-----|-----1-----------|
D |----2---2---------|---2---2-4-2-1-2-|
A |------------------|-----------------|
E |--2---2---2---2---|-4---4---4---4---|


E |----------------0-|-----------------|
B |----------0---2---|-----------------|
G |------1-----1-----|-----1-----------|
D |----2---2---------|---2---2-4-2-1-2-|
A |--0---0---0---0---|-2---2---2---2---|
E |------------------|-----------------|


E |----------------0-|-----------------|
B |----------0---2---|-----------------|
G |------1-----1-----|-----1-----------|
D |----2---2---------|---2---2-4-2-1-2-|
A |------------------|-----------------|
E |--0---0---0---0---|-0---0---0---0---|


E |----------------0-|-----------------|
B |----------0---2---|-----------------|
G |------1-----1-----|-----1-----------|
D |----2---2---------|---2---2-4-2-1-2-|
A |------------------|-----------------|
E |--0---0---0---0---|-0---0---0---0---|


E |----------------0-|-----------------|
B |----------0---2---|-----------------|
G |------1-----1-----|-----1-----------|
D |----2---2---------|---2---2-4-2-1-2-|
A |--4---4---4---4---|-2---2---2---2---|
E |------------------|-----------------|


E |----------------0-|-----------------|
B |----------0---2---|-----------------|
G |------1-----1-----|-----1-----------|
D |----2---2---------|---2---2-4-2-1-2-|
A |--0---0---0---0---|-0---0---0---0---|
E |------------------|-----------------|


E |----------------0-|-----------------|
B |----------0---2---|-----------------|
G |------1-----1-----|-----1-----------|
D |----2---2---------|---2---2-4-2-1-2-|
A |------------------|-----------------|
E |--2---------------|-4---------------|


E |----------------0-|-----------------|
B |----------0---2---|-----------------|
G |------1-----1-----|-----1-----------|
D |----2---2---------|---2---2-4-2-1-2-|
A |--0---------------|-2---------------|
E |------------------|-----------------|


E |------------------|-----------------|
B |----0---0---0---0-|---0---0---0---0-|
G |--1---1---1---1---|-1---1---1---1---|
D |------------------|-----------------|
A |------------------|-----------------|
E |--0---------------|-----------------|


E |------------------|-----------------|
B |----0---0---0---0-|---0---0---0---0-|
G |--1---1---1---1---|-1---1---1---1---|
D |------------------|-----------------|
A |------------------|-----------------|
E |--0---------------|-----------------|


Verse 2
E |----------------0-|-----------------|
B |----------0---2---|-----------------|
G |------1-----1-----|-----1-----------|
D |----2---2---------|---2---2-4-2-1-2-|
A |------------------|-----------------|
E |--0---------------|-0---------------|


E |----------------0-|-----------------|
B |----------0---2---|-----------------|
G |------1-----1-----|-----1-----------|
D |----2---2---------|---2---2-4-2-1-2-|
A |------------------|-----------------|
E |--0---------------|-0---------------|


E |----------------0-|-----------------|
B |----------0---2---|-----------------|
G |------1-----1-----|-----1-----------|
D |----2---2---------|---2---2-4-2-1-2-|
A |--4---------------|-2---------------|
E |------------------|-----------------|


E |----------------0-|-----------------|
B |----------0---2---|-----------------|
G |------1-----1-----|-----1-----------|
D |----2---2---------|---2---2-4-2-1-2-|
A |--0---------------|-0---------------|
E |------------------|-----------------|


E |----------------0-|-----------------|
B |----------0---2---|-----------------|
G |------1-----1-----|-----1-----------|
D |----2---2---------|---2---2-4-2-1-2-|
A |------------------|-----------------|
E |--0---------------|-0---------------|


E |----------------0-|-----------------|
B |----------0---2---|-----------------|
G |------1-----1-----|-----1-----------|
D |----2---2---------|---2---2-4-2-1-2-|
A |------------------|-----------------|
E |--0---------------|-0---------------|


E |----------------0-|-----------------|
B |----------0---2---|-----------------|
G |------1-----1-----|-----1-----------|
D |----2---2---------|---2---2-4-2-1-2-|
A |--4---------------|-2---------------|
E |------------------|-----------------|


E |----------------0-|-----------------|
B |----------0---2---|-----------------|
G |------1-----1-----|-----1-----------|
D |----2---2---------|---2---2-4-2-1-2-|
A |--0---------------|-0---------------|
E |------------------|-----------------|


E |----------------0-|-----------------|
B |----------0---2---|-----------------|
G |------1-----1-----|-----1-----------|
D |----2---2---------|---2---2-4-2-1-2-|
A |------------------|-----------------|
E |--2---------------|-4---------------|


E |----------------0-|-----------------|
B |----------0---2---|-----------------|
G |------1-----1-----|-----1-----------|
D |----2---2---------|---2---2-4-2-1-2-|
A |--0---------------|-2---------------|
E |------------------|-----------------|


E |----------------0-|---------------0-|
B |----------0---2---|---------0---2---|
G |------1-----1-----|-----1-----1-----|
D |----2---2---------|---2---2---------|
A |------------------|-----------------|
E |--0---------------|-0---------------|


E |----------------0-|-----------------|
B |----------0---2---|-----------------|
G |------1-----1-----|-----1-----------|
D |----2---2---------|---2---2---------|
A |------------------|-----------------|
E |--0---------------|-0-------0-------|


Chorus
E |----------------0-|-----------------|
B |----------0---2---|-----------------|
G |------1-----1-----|-----1-----------|
D |----2---2---------|---2---2-4-2-1-2-|
A |--4---4---4---4---|-2---2---2---2---|
E |------------------|-----------------|


E |----------------0-|-----------------|
B |----------0---2---|-----------------|
G |------1-----1-----|-----1-----------|
D |----2---2---------|---2---2-4-2-1-2-|
A |--0---0---0---0---|-0---0---0---0---|
E |------------------|-----------------|


E |----------------0-|-----------------|
B |----------0---2---|-----------------|
G |------1-----1-----|-----1-----------|
D |----2---2---------|---2---2-4-2-1-2-|
A |------------------|-----------------|
E |--2---2---2---2---|-4---4---4---4---|


E |----------------0-|-----------------|
B |----------0---2---|-----------------|
G |------1-----1-----|-----1-----------|
D |----2---2---------|---2---2-4-2-1-2-|
A |--0---0---0---0---|-2---2---2---2---|
E |------------------|-----------------|


E |----------------0-|-----------------|
B |----------0---2---|-----------------|
G |------1-----1-----|-----1-----------|
D |----2---2---------|---2---2-4-2-1-2-|
A |------------------|-----------------|
E |--0---0---0---0---|-0---0---0---0---|


E |----------------0-|-----------------|
B |----------0---2---|-----------------|
G |------1-----1-----|-----1-----------|
D |----2---2---------|---2---2-4-2-1-2-|
A |------------------|-----------------|
E |--0---0---0---0---|-0---0---0---0---|


E |----------------0-|-----------------|
B |----------0---2---|-----------------|
G |------1-----1-----|-----1-----------|
D |----2---2---------|---2---2-4-2-1-2-|
A |--4---4---4---4---|-2---2---2---2---|
E |------------------|-----------------|


E |----------------0-|-----------------|
B |----------0---2---|-----------------|
G |------1-----1-----|-----1-----------|
D |----2---2---------|---2---2-4-2-1-2-|
A |--0---0---0---0---|-0---0---0---0---|
E |------------------|-----------------|


E |----------------0-|-----------------|
B |----------0---2---|-----------------|
G |------1-----1-----|-----1-----------|
D |----2---2---------|---2---2-4-2-1-2-|
A |------------------|-----------------|
E |--2---------------|-4---------------|


E |----------------0-|-----------------|
B |----------0---2---|-----------------|
G |------1-----1-----|-----1-----------|
D |----2---2---------|---2---2-4-2-1-2-|
A |--0---------------|-2---------------|
E |------------------|-----------------|


E |------------------||
B |------------------||
G |------------------||
D |------------------||
A |------------------||
E |--0---------------||   ENJOY! 
            
Submit corrections

comments powered by Disqus
↑ Back to top | Avicii Tabs for Fade Into Darkness. Lyrics for acoustic guitar and electric guitar. Tablatures and chords are parodies/interpretations of the original songs. You may use it for private study, scholarship, research or language learning purposes only