» » »

Avalanche City, Love Dont Leave Chords (ver.2)

Artists:  A B C D E F G H I J K L M N O P Q R S T U V W X Y Z # 

Love Dont Leave Chords (ver.2)

Avalanche City Tabs
 Rating:
4/5 (4 votes)
Love Dont Leave lessons Tabs too difficult? Try these video lessons and learn fast
1
                -------------------------------------------------------------------------------
                             Love Don't Leave - Avalanche City
-------------------------------------------------------------------------------

Haven't done any music theory in years so I've just labeled the chords as chord 1 and 
chord 2 to avoid further embarrassment... Did this in about 5 minutes, sorry if you think 
it's wrong but sounds good to me. And for the record I love songs you can play with two chords.

Tuning: Standard
Capo: 1

Instructions: Basically alternate chords for each line, eg Line 1 = Chord 1, Line 2 = 
Chord 2, Line 3 = Chord 1, Line 4 = Chord 2.

           Chord 1                   Chord 2
e|------5-----------------3----------------------------------------------------|
B|------5-----------------1----------------------------------------------------|
G|------5-----------------0----------------------------------------------------|
D|------5-----------------0----------------------------------------------------|
A|------2-----------------2----------------------------------------------------|
E|------5-----------------3----------------------------------------------------|

Intro:
Alternate Chords

Verse 1:
Her cheeks were red and cold
and i held her hand in mine
she squeezed it tight and i felt the warmth
escape my bones inside

we saw a storm from far away
and we laughed as it wandered by
then it turned around to hunt us down
so we ran away to hide and she said

Chorus:
love don't
leave me now

Verse 2:
her heart was beating fast
and i hoped that we could stay
in our hiding place where it was warm
and cold could not invade

we laughed aloud and talked of things
that happened yesterday
but the storm could hear our voices clear
so it came on its way and she said

Chorus:
love don't
leave me now

well lives in love wont last
if they wont face the day
will you answer this she said
and i hoped it was just a game

but i saw her skin change before me
and cold became her face
so i took my hand from hers
and began to walk away

Chorus:
love don't
leave me now

If you need a reference:
            
Submit corrections

comments powered by Disqus
↑ Back to top | Avalanche City Chords for Love Dont Leave. Lyrics for acoustic guitar and electric guitar. 1 Tablatures and chords are parodies/interpretations of the original songs. You may use it for private study, scholarship, research or language learning purposes only