» » »

Avalanche City, Drive On Tabs (ver.1)

Artists:  A B C D E F G H I J K L M N O P Q R S T U V W X Y Z # 

Drive On Tabs (ver.1)

Avalanche City Tabs
 Rating:
4/5 (4 votes)
Drive On lessons Tabs too difficult? Try these video lessons and learn fast
                Song written by Dave Baxter
Guitar part by Dave Baxter and by Strahan Cole
Copyright: Copyright © 2011


Here is the tab for all the lead guitar parts as played live. It changes only slightly 
I don't think I need to put times for most these parts because the guitar part is pretty 
easy to hear in the mix.



Intro: (not on the recording. Maybe really quiet on violin? Live this is played by both 
guitar and violin.)
Play 2x, then verse starts.
   4/4
   P.M.----------------------|         P.M.---------------------------------|
 E|-----------------|-----------------|-----------------|-------------------|
 B|-----------------|---------8---8---|-----------------|---------9-8-9-8---|
 G|-----8-10----8-10|-----8-10--10--10|-----8-10----8-10|-----8-10----------|
 D|-8-10----8-10----|-8-10------------|-8-10----8-10----|-8-10--------------|
 A|-----------------|-----------------|-----------------|-------------------|
 E|-----------------|-----------------|-----------------|-------------------|

  P.M.----------------------|         P.M.---------------------------------|
E|-----------------|-----------------|-----------------|-------------------|
B|-----------------|---------8---8---|-----------------|---------9-8-------|
G|-----8-10----8-10|-----8-10--10--10|-----8-10----8-10|-----8-10----10----|
D|-8-10----8-10----|-8-10------------|-8-10----8-10----|-8-10--------------|
A|-----------------|-----------------|-----------------|-------------------|
E|-----------------|-----------------|-----------------|-------------------|




This bit here is the main guitar riff:

E|---------------------|-----------------|---------------------|
B|------8-8------------|-----------------|------8-8------------|
G|----------10-10-8-8-6|-----------------|----------10-10-8-8-6|
D|-10-10---------------|-8-----8---8---8-|/10-10---------------|
A|---------------------|-----------------|---------------------|
E|---------------------|-----------------|---------------------|

                   (These last two bars and the next four only come in at the end of the song)
E|-----------------|-------------------|--------------------|
B|-----------------|-------------------|--------------------|
G|-----------------|-------------------|----------------7-7-|
D|-8-----8---8---8-|-10-10-----8-8-----|------10-10-8-8-----|
A|-----------------|------10-10----8-8-|-10-10--------------|
E|-----------------|-------------------|--------------------|


E|--------------------|-----------------|------------------|-------------------|
B|-----8-8------------|-----------------|-------------8----|-------------------|
G|-8-8-----10-10-8-8-6|-----------------|-----8---8-10--10-|----8----------8---|
D|--------------------|-8-----8---8---8-|-8-10--10---------|------10-8-10------|
A|--------------------|-----------------|------------------|-------------------|
E|--------------------|-----------------|------------------|-------------------|


In the instrumental at the end of the song, the main riff plays through twice. Then, 
this next bit is played:
(In the recorded version, it's just the main riff x3)

E|------------------|-------------------|------------------|---------------8---|
B|-------------8-11-|----8----------8---|-------------8-11-|----8-11-8-11------|
G|-----8---8-10-----|------10-8-10------|-----8---8-10-----|-------------------|
D|-8-10--10---------|-------------------|-8-10--10---------|-------------------|
A|------------------|-------------------|------------------|-------------------|
E|------------------|-------------------|------------------|-------------------|


E|-8---8---8-8-8-11-|----11-11-11----11-11-11|
B|-8---8---8-8-8-11-|----11-11-11----11-11-11|
G|------------------|------------------------|
D|------------------|------------------------|
A|------------------|------------------------|
E|------------------|------------------------|
            
Submit corrections

comments powered by Disqus
↑ Back to top | Avalanche City Tabs for Drive On. Lyrics for acoustic guitar and electric guitar. Tablatures and chords are parodies/interpretations of the original songs. You may use it for private study, scholarship, research or language learning purposes only