» » »

Avalanche City, Drive On Bass tabs (ver.1)

Artists:  A B C D E F G H I J K L M N O P Q R S T U V W X Y Z # 

Drive On Bass tabs (ver.1)

Avalanche City Tabs
Rating:
0/5 (0 votes)
Drive On lessons Tabs too difficult? Try these video lessons and learn fast
                Drive On by Avalanche City
written by Dave Baxter

Bass Tab

Tuning: Standard AEDG

Intro/Verse 1/Bridge 1/Verse 2:
In the car...
We started to believe...
I knew now...
So to the south...
|----------------------------|
|-------3-5-6--------3(x4)-6-|
|6(x12)-------3(x24)---------|
|----------------------------|
        ^ hold 3 for 2 beats
          ^ hold 5 for 6 beats
            ^ hold 6 for 2 beats
                           ^ hold 6 for 2 beats

Bridge 2:
|--------------------------------|
|-------3-5-6--------3(x4--------|5(x4)
|6(x12)-------3(x24)-------------|
|--------------------------------|


Chorus:
So believing every...
|---------------------|
|6(x16)--------3(x32--|
|-------3(x16)--------|
|---------------------|

Go on, you said
|---------------------------------|
|6(x16)--------6(x16)-------------|3(x8)
|-------3(x16)--------3(x8)-------|
|---------------------------------|


Outtro:
|----------------|
|6(x8)-----------|
|------3(x8)-----|   X3
|----------------|

|------|
|3(x16)|
|------|
|------|
            
Submit corrections

comments powered by Disqus
↑ Back to top | Avalanche City Bass for Drive On. Lyrics for acoustic guitar and electric guitar. Tablatures and chords are parodies/interpretations of the original songs. You may use it for private study, scholarship, research or language learning purposes only