>
 >
Pelayo

Pelayo Bass Tabs

Avalanch - Pelayo chords, tabs, tablatures, lyrics

Guitar lessons | Add/correct | Request | Top 50 tabs Artists:  A B C D E F G H I J K L M N O P Q R S T U V W X Y Z 0-9

Pelayo Bass Tabs – Avalanch

CD, Sheet music, Poster

Do you like Pelayo? Share with your friends now
Bass TabsTabs

PELAYO (Bassline)
As recorded by Avalanch
(From the 1999 Album LLANTO DE UN HÉROE)

	

Words and Music by Alberto Rionda

Gtr I (Eb Ab Db Gb) - 'Untitled'

 Intro
  Q=96                   Q=134
 4/4           3/4      4/4
  Gtr I
  Wx18          W        W
|-------------|--------|------|
|-------------|--------|------|
|-------------|--------|------|
|-------------|--------|------|


   Verso
    E E E E E E E E   E E E E E E E E   E E E E E E E E
||------------------|-----------------|-----------------|
||o-----------------|-----------------|-----------------|
||o-7-7-7-7-7-7-7-7-|-7-7-7-7-7-7-7-7-|-3-3-3-3-3-3-3-3-|
||------------------|-----------------|-----------------|


  1.                   2.
                 ~~~
  E E E E E E E +E      E E E E E E E E   E E E E E E E E
|--------------------||-----------------|-----------------|
|-------------------o||-----------------|-----------------|
|-2-2-2-2-2-0-2-(2)-o||-----------------|-5-5-5-5-5-5-5-5-|
|--------------------||-3-3-3-3-3-3-3-3-|-----------------|


  E E E E E E E E   E E E E E E E E
|-----------------|-----------------|
|-----------------|-----------------|
|-7-7-7-7-7-7-7-7-|-7-7-7-7-7-7-7-7-|
|-----------------|-----------------|


                                       1.
    $
    E E E E E E E E   E E E E E E E E   E E E E E E E E
||------------------|-----------------|-----------------|
||o-----------------|-----------------|-----------------|
||o-7-7-7-7-7-7-7-7-|-7-7-7-7-7-7-7-7-|-3-3-3-3-3-3-3-3-|
||------------------|-----------------|-----------------|


                     2.
                ~
  E E E E E E E E     W          E E E E E E E E   E E E E E E E E
|------------------||----------|-----------------|-----------------|
|-----------------o||----------|-----------------|-----------------|
|-5-5-5-5-5-3-5-3-o||-3--------|-----------------|-5-5-5-5-5-5-5-5-|
|------------------||----------|-3-3-3-3-3-3-3-3-|-----------------|


                           To Coda
  E E E E E E E E   E E E E E E E E
|-----------------|-----------------|
|-----------------|-----------------|
|-7-7-7-7-7-7-7-7-|-7-7-7-7-7-7-7-2-|
|-----------------|-----------------|


   Pre-Coro
                                                         1.
    E E E E E E E E   E E E E E E E E   E E E E E E E E   E E E E E E E E
||------------------|-----------------|-----------------|------------------|
||o-----------------|-----------------|-----------------|------------------|
||o-3-3-3-3-3-3-3-3-|-5-5-5-5-5-5-5-5-|---------5-5-5-5-|------------------|
||------------------|-----------------|-3-3-3-3---------|-5-5-5-5-5-5-5-5--|


                     2.
  E E E E E E E E     E E E E E E E E   E E E E E E E E
|------------------||-----------------|-----------------|
|-----------------o||-----------------|-----------------|
|-----------------o||-7-7-7-7-7-7-7-7-|-7-7-7-5-7-7-7-2-|
|-5-5-5-5-5-5-5-5--||-----------------|-----------------|


 Puente
                           |-3-| |-3-|  |-3-| |-3--|
  H..       E   W          E E E E E E  E E E E  E E
|-------------|----------|---------------------------|
|-------------|----------|------------------9-7------|
|-3---------3-|-5--------|-7-7-7-7-7-7-10-7-----10-9-|
|-------------|----------|---------------------------|


  |-3-| |-3-|  |-3-|  |-3--|
  E E E E E E  E E E  E E  E
|-----------------------------|
|-----------------------------|
|-7-7-7-7-7-7-10-7-7----------|
|--------------------10-7-10--|


                            |-3-| |-3-|  |-3-| |-3--|
  W          E  H..         E E E E E E  E E E E  E E
|----------|--------------|---------------------------|
|----------|--------------|------------------9-7------|
|-3--------|-5-/9---------|-7-7-7-7-7-7-10-7-----10-9-|
|----------|--------------|---------------------------|


  |-3-| |-3-|  |-3-|  |-3--|
  E E E E E E  E E E  E E  E
|-----------------------------|
|-----------------------------|
|-7-7-7-7-7-7-10-7-7----------|
|--------------------10-7-10--|


                                                         1.
    E E E E E E E E   E E E E E E E E   E E E E E E E E   E E E E E E E E
||------------------|-----------------|-----------------|------------------|
||o-----------------|-----------------|-----------------|------------------|
||o-----------------|-----------------|-----------------|-3-3-3-3-3-3-3-3--|
||--0-0-0-0-0-0-0-0-|-0-0-0-0-0-0-0-0-|-3-3-3-3-3-3-3-3-|------------------|


  E E E E E E E E   E E E E E E E E
|-----------------|------------------||
|-----------------|-----------------o||
|-5-5-5-5-5-5-5-5-|-3-3-3-3-5-5-5-5-o||
|-----------------|------------------||


 2.
  E E E E E E E E   E E E E E E E E   H    H
|-----------------|-----------------|-----------|
|-----------------|-----------------|-----------|
|-5-5-5-5-5-5-5-5-|-7-7-7-7-7-7-7-7-|-3----5----|
|-----------------|-----------------|-----------|


   Verso
     E E E E E E E E   E E E E E E E E
||-------------------|-----------------|
||o------------------|-----------------|
||o-/7-7-7-7-7-7-7-7-|-7-7-7-7-7-7-7-7-|
||-------------------|-----------------|


                   1.
                                    ~~~
  E E E E E E E E   E E E E E E  E +E
|-----------------|----------------------||
|-----------------|---------------------o||
|-3-3-3-3-3-3-3-3-|-2-2-2-3-2-3-/5-(5)--o||
|-----------------|----------------------||


  2.
                                                          D.S. al Coda
  E E E E E E E E   E E E E E E E E   E E E E E E E E   E E E E E E E E
|-----------------|-----------------|-----------------|-----------------|
|-----------------|-----------------|-----------------|-----------------|
|-----------------|-5-5-5-5-5-5-5-5-|-7-7-7-7-7-7-7-7-|-7-7-7-7-7-7-7-7-|
|-3-3-3-3-3-3-3-3-|-----------------|-----------------|-----------------|


   Pre-Coro
    &
    E S S E E E E E E   E S S E E E E E E   E E E E E E E E
||--------------------|-------------------|-----------------|
||o-------------------|-------------------|-----------------|
||o-3-3-3-3-3-3-3-3-3-|-5-5-5-5-5-5-5-5-5-|---------5-5-5-5-|
||--------------------|-------------------|-3-3-3-3---------|


  1.                                           2.
  E S S E E S S S S S S E   E E E E E E E E     E S S E E E E E E
|-------------------------|------------------||-------------------|
|-------------------------|-----------------o||-------------------|
|-------------------------|-----------------o||-7-7-7-7-7-7-7-7-7-|
|-5-5-5-5-5-5-5-5-5-5-5-5-|-5-5-5-5-5-5-5-5--||-------------------|


 Cambio De Tiempo
  Q.=129
 12/8
  W.                E E E E E E E E E E E E   E E E E E E E E E E E E
|---------------||--------------------------|---------------------------|
|---------------||o-------------------------|---------------------------|
|-7-------------||o-3-3-3-3-3-3-3-3-3-3-3-3-|-5-5-5-5-5-5-5-5-5-5-5-5---|
|---------------||--------------------------|---------------------------|


  1.,2.,3.
  E S S E E E E  E E E E  E E   E S S E E E E  E E E  E E  E
|-----------------------------|-------------------------------||
|--------------------9-7------|------------------------------o||
|-7-7-7-7-7-7-7-10-7-----10-9-|-7-7-7-7-7-7-7-10-7-7---------o||
|-----------------------------|----------------------10-7-10--||


 4.
  E E E E E E E E E E E E   E E E E E E E E E E E E
|-------------------------|--------------------------|
|-------------------------|--------------------------|
|-2-2-2-2-2-2-2-2-2-2-2-2-|-0-0-0-0-0-0-0-0-0-0-0-2--|
|-------------------------|--------------------------|


  W.              W.              W.              +W.              +W.
|---------------|---------------|---------------|----------------|--------|
|---------------|---------------|---------------|----------------|--------|
|-0-------------|---------------|-2-------------|-(2)------------|-(2)----|
|---------------|-0-------------|---------------|----------------|--------|


   Coro
    E E E E E E E E E E E E
||--------------------------|
||o-------------------------|
||o-7-7-7-7-7-7-7-7-7-7-7-5-|
||--------------------------|


  E E E E E E E E E E E E   E E E E E E E E E E E E
|-------------------------|-------------------------|
|-------------------------|-------------------------|
|-7-7-7-7-7-7-7-7-7-7-7-7-|-3-3-3-3-3-3-3-3-3-3-3-3-|
|-------------------------|-------------------------|


                           1.
  E E E E E E E E E E E E   E E E E E E E E E E E E
|-------------------------|--------------------------||
|-------------------------|-------------------------o||
|-0-0-0-0-0-0-0-0-0-0-0-0-|-5-5-5-5-5-5-5-5-5-5-5-5-o||
|-------------------------|--------------------------||


 2.
  E E E E E E E E E E E E
|--------------------------|
|--------------------------|
|-2-2-2-2-2-2-2-2-2-2-2-2--|
|--------------------------|


 Solo De Guitarra I
  E E  E  E E E E E E E E E   E E E E E E E E E E E E   W.              +W.
|---------------------------|-------------------------|---------------|--------|
|---------------------------|-------------------------|---------------|--------|
|-7-7-(7)-7-7-7-5-5-5-7-5-7-|-0-0-0-0-0-0-0-0-0-0-0-0-|-2-------------|-(2)----|
|---------------------------|-------------------------|---------------|--------|


  W.              W.              W.              H.      H.
|---------------|---------------|---------------|---------------|
|---------------|---------------|---------------|---------------|
|-5-------------|---------------|---------------|---------------|
|---------------|-3-------------|-5-------------|-3-------5-----|


  W.              E E E E E E E E E E E E
|---------------|-------------------------|
|---------------|-------------------------|
|-2-------------|-2-2-2-2-2-2-2-2-2-2-2-2-|
|---------------|-------------------------|


  E E E E E E E E E E E E   E E E E E E E E E E E E
|-------------------------|----------------------------|
|-------------------------|----------------------------|
|-5-5-5-5-5-5-5-5-5-5-5-5-|----------------------------|
|-------------------------|-5-5-5-5-5-5-5-5-5-5-5-5----|


  a E E E E E E a E E E E E E
|-----------------------------|
|-2h4-4-4-4-4-4-2h4-4-4-4-4-4-|
|-----------------------------|
|-----------------------------|


  a E E E E E E a E E E E E E   Q   W        Q    W
|-----------------------------|-----------------|------|
|-2h4-4-4-4-4-4-2h4-4-4-4-4-4-|-----------------|------|
|-----------------------------|-2\--------------|------|
|-----------------------------|-----------------|------|


   Solo Harmonizado
    E E E E E E E E E E E E   E E E E E E E E E E E E
||--------------------------|-------------------------|
||o-------------------------|-------------------------|
||o-7-7-7-7-7-7-7-7-7-7-7-7-|-7-7-7-7-7-7-7-7-7-7-7-7-|
||--------------------------|-------------------------|


                           1.
  E E E E E E E E E E E E   E E E E E E E E E E E E
|-------------------------|----------------------------||
|-------------------------|---------------------------o||
|-3-3-3-3-3-3-3-3-3-3-3-3-|-5-5-5-5-5-5-5-5-5-5-5-5---o||
|-------------------------|----------------------------||


  2.
  E E E E E E E E E E E E   E E E E E E E E E E E E
|-------------------------|-------------------------|
|-------------------------|-------------------------|
|-------------------------|-------------------------|
|-3-3-3-3-3-3-3-3-3-3-3-3-|-5-5-5-5-5-5-5-5-5-5-5-5-|


  E E E E E E E E E E E E   E E E E E E E E E E E E
|-------------------------|----------------------------|
|-------------------------|----------------------------|
|-2-2-2-2-2-2-2-2-2-2-2-2-|-2-2-2-2-2-2-2-2-2-2-2-2----|
|-------------------------|----------------------------|


   Pre-Coro
    E E E E E E E E E E E E
||--------------------------|
||o-------------------------|
||o-3-3-3-3-3-3-3-3-3-3-3-3-|
||--------------------------|


  E E E E E E E E E E E E   E E E E E E E E E E E E
|-------------------------|-------------------------|
|-------------------------|-------------------------|
|-5-5-5-5-5-5-5-5-5-5-5-5-|-------------5-5-5-5-5-5-|
|-------------------------|-3-3-3-3-3-3-------------|


  1.
  E E E E E E E E E E E E   E E E E E E E E E E E E
|-------------------------|--------------------------||
|-------------------------|-------------------------o||
|-------------------------|-------------------------o||
|-5-5-5-5-5-5-5-5-5-5-5-5-|-5-5-5-5-5-5-5-5-5-5-5-5--||


 2.
  E E E E E E E E E E E E   E E E E E E E E E E E E
|-------------------------|----------------------------|
|-------------------------|----------------------------|
|-7-7-7-7-7-7-7-7-7-7-7-7-|-7-7-7-7-7-7-7-7-7-7-7-7----|
|-------------------------|----------------------------|


    E E E E E E E E E E E E   E E E E E E E E E E E E
||--------------------------|-------------------------|
||o-------------------------|-------------------------|
||o-3-3-3-3-3-3-3-3-3-3-3-3-|-5-5-5-5-5-5-5-5-5-5-5-5-|
||--------------------------|-------------------------|


 1.
  E S S E E E E  E E E E  E E
|------------------------------|
|--------------------9-7-------|
|-7-7-7-7-7-7-7-10-7-----10-9--|
|------------------------------|


  E S S E E E E  E E E  E E  E
|-------------------------------||
|------------------------------o||
|-7-7-7-7-7-7-7-10-7-7---------o||
|----------------------10-7-10--||


 2.
  E E E E E E E E E E E E   E E E E E E E E E E E E
|-------------------------|-------------------------|
|-------------------------|-------------------------|
|-2-2-2-2-2-2-2-2-2-2-2-2-|-2-2-2-2-2-2-2-2-2-2-2-2-|
|-------------------------|-------------------------|


   Coro
    E E E E E E E E E E E E
||--------------------------|
||o-------------------------|
||o-7-7-7-7-7-7-7-7-7-7-7-7-|
||--------------------------|


  E E E E E E E E E E E E   E E E E E E E E E E E E
|-------------------------|-------------------------|
|-------------------------|-------------------------|
|-7-7-7-7-7-7-7-7-7-7-7-7-|-3-3-3-3-3-3-3-3-3-3-3-3-|
|-------------------------|-------------------------|


  E E E E E E E E E E E E   E E E E E E E E E E E E   E E E E E E E E E E E E
|-------------------------|-------------------------|--------------------------|
|-------------------------|-------------------------|--------------------------|
|-0-0-0-0-0-0-0-0-0-0-0-0-|-5-5-5-5-5-5-5-5-5-5-5-5-|-7-7-7-7-7-7-7-7-7-7-7-7--|
|-------------------------|-------------------------|--------------------------|


  E E E E E E E E E E E E   E E E E E E E E E E E E
|-------------------------|-------------------------|
|-------------------------|-------------------------|
|-7-7-7-7-7-7-7-7-7-7-7-7-|-3-3-3-3-3-3-3-3-3-3-3-3-|
|-------------------------|-------------------------|


  E E E E E E E E E E E E   E E E E E E E E E E E E
|-------------------------|-----------------------------||
|-------------------------|----------------------------o||
|-0-0-0-0-0-0-0-0-0-0-0-0-|-2-2-2-2-2-2-2-2-2-2-2-2----o||
|-------------------------|-----------------------------||


   Solo De Guitarra II
    E E E E E E E E E E E E
||--------------------------|
||o-------------------------|
||o-7-7-7-7-7-7-7-7-7-7-7-7-|
||--------------------------|


  E E E E E E E E E E E E   E E E E E E E E E E E E
|-------------------------|-------------------------|
|-------------------------|-------------------------|
|-7-7-7-7-7-7-7-7-7-7-7-7-|-3-3-3-3-3-3-3-3-3-3-3-3-|
|-------------------------|-------------------------|


                           1.
  E E E E E E E E E E E E   E E E E E E E E E E E E
|-------------------------|--------------------------||
|-------------------------|-------------------------o||
|-0-0-0-0-0-0-0-0-0-0-0-0-|-5-5-5-5-5-5-5-5-5-5-5-5-o||
|-------------------------|--------------------------||


 2.
  E E E E E E E E E E E E
|--------------------------|
|--------------------------|
|-2-2-2-2-2-2-2-2-2-2-2-2--|
|--------------------------|


 Outro
  Q=96
 4/4
  E  H..         Wx12
|--------------|---------*|
|--------------|---------*|
|-2\-----------|---------*|
|--------------|---------*|



Duration Legend
---------------
W - whole; H - half; Q - quarter; E - 8th; S - 16th; T - 32nd; X - 64th; a - acciaccatura
+ - note tied to previous; . - note dotted; .. - note double dotted
Uncapitalized letters represent notes that are staccato (1/2 duration)
Irregular groupings are notated above the duration line
Duration letters will always appear directly above the note/fret number it represents the
duration for.  Duration letters with no fret number below them represent rests.  Multi-
bar rests are notated in the form Wxn, where n is the number of bars to rest for.  Low
melody durations appear below the staff

Tablature Legend
----------------
 h   - hammer-on
 p   - pull-off
 b   - bend
 pb  - pre-bend
 r   - bend release (if no number after the r, then release immediately)
 /\  - slide into or out of (from/to "nowhere")
 s   - legato slide
 S   - shift slide
 - natural harmonic
[n]  - artificial harmonic
n(n) - tapped harmonic
 ~   - vibrato
 tr  - trill
 T   - tap
 TP  - trem. picking
 PM  - palm muting
\n/  - tremolo bar dip; n = amount to dip
 \n  - tremolo bar down
 n/  - tremolo bar up
/n\  - tremolo bar inverted dip
 =   - hold bend; also acts as connecting device for hammers/pulls
 <> - volume swell (louder/softer)
 x   - on rhythm slash represents muted slash
 o   - on rhythm slash represents single note slash

Misc Legend
-----------
 |  - bar
||  - double bar
||o - repeat start
o|| - repeat end
*|  - double bar (ending)
 :  - bar (freetime)
 $  - Segno
 &  - Coda
Tempo markers -  = BPM(8/16=s8/s16), where s8 = swing 8ths, s16 = swing 16ths





Comments


Popular Avalanch tabs & chords
Cambaral Bass Tabs
Alas De Cristal Chords
Cambaral Tabs
Pelayo Tabs
Torquemada Tabs
Alas De Cristal Ukulele


Song lyrics



↑ Back to top | Tablatures and chords are parodies/interpretations of the original songs. You may use it for private study, scholarship, research or language learning purposes only
© 2014 AZChords.com Contact us | Privacy policy | DMCA | Add/correct tabs | Request tabs | Top 50 tabs