» » »

Avalanch, Cambaral Bass tabs (ver.1)

Artists:  A B C D E F G H I J K L M N O P Q R S T U V W X Y Z # 

Cambaral Bass tabs (ver.1)

Avalanch Tabs
 Rating:
4/5 (4 votes)
Cambaral lessons Tabs too difficult? Try these video lessons and learn fast
1
                
CAMBARAL (Bassline)
As recorded by Avalanch
(From the 1997 Album LLANTO DE UN HÉTOE)

	

Words and Music by Alberto Rionda

Gtr I (Eb Ab Db Gb) - 'Untitled'

 Intro
  Q=140
 9/8
  Gtr I
  Wx2             E E E E E E E E E   E E E E E E E E E
|-------------||--------------------|-------------------|
|-------------||o---7-5-------------|---7-5-------------|
|-------------||o-------7-8-5-4-5---|-------7-8-5-4-5---|
|-------------||--5---------------3-|-5---------------3-|


  E E E E E E E E E   E E E E E E E E E
|-------------------|-------------------|
|---7-5-------------|---7-5-----------5-|
|-------7-8-5-4-5---|-------7-8-5-4-5---|
|-5---------------3-|-5-----------------|


  E E E E E E E E E    E E E E E E E E E
|-----4-------------||-------------------|
|-7-6---3-6---3-----||---5-3-------------|
|-----------5---4---||-------5-6-3-2-3---|
|-----------------1-||-3---------------1-|


  E E E E E E E E E   E E E E E E E E E
|-------------------|--------------------|
|-------------------|-5------------------|
|-------4---4-7-4-7-|---7-4-7-4---4-7----|
|-3-3-6---6---------|-----------6-----3--|


  1.                           2.
                               4/4
  Q   H..         W             Q   H.        W
|---------------|------------||-------------|------|
|---------------|-----------o||-------------|------|
|---------------|-----------o||-------------|------|
|-5\------------|------------||-5\----------|------|


   9/8
    E E E E E E E E E  3x E E E E E E E E E
||---------------------||-------------------|
||o---7-5-------------o||---7-5-----------5-|
||o-------7-8-5-4-5---o||-------7-8-5-4-5---|
||--5---------------3--||-5-----------------|


  E E E E E E E E E    E E E E E E E E E
|-----4-------------||--------------------|
|-7-6---3-6---3-----||---5-3--------------|
|-----------5---4---||-------5-6-3-2-3----|
|-----------------1-||-3---------------1--|


                                           4/4
  E E E E E E E E E   E E E E E E E E E     E E E E E E E E  8x
|-------------------|-------------------||-------------------||
|-------------------|-5-----------------||o-----------------o||
|-------4---4-7-4-7-|---7-4-7-4---4-7---||o-----------------o||
|-3-3-6---6---------|-----------6-----3-||--5-5-5-6-6-6-6-6--||


   Versos I & II
    $
    S S E E S S E E S S E   S S E E S S E E S S E   E S S E E E S S E E
||------------------------|-----------------------|---------------------|
||o-----------------------|-----------------------|---------------------|
||o-----------------------|-----------------------|---------------------|
||--5-5-5---5-5-5-5-5-5-5-|-5-5-5---5-5-5-5-5-5-5-|-5-5-5-5-5---5-5-5-5-|


                       1.
  E S S E E E S S E E   S S E E S S E E S S E
|---------------------|-----------------------||
|---------------------|-----------------------||
|---------------------|-7-7-7---7-7-7-7-7-7-7-||
|-5-5-5-5-5---5-5-5-5-|-----------------------||


 5/4
  S S S S S S S S S S E S S E S S E
|-----------------------------------|
|-----------------------------------|
|-----------------------------------|
|-0-0-0-0-3p1-0-0-0-0-1-0-0-5-0-0-4-|


  S S S S S S S S S S E S S E S S E
|------------------------------------||
|-----------------------------------o||
|---------------------------3-----2-o||
|-0-0-0-0-3p1-0-0-0-0-1-0-0---0-0----||


 2.
 4/4
  S S E E S S E E S S E   E E E E E E E E
|-----------------------|-----------------|
|-----------------------|-----------------|
|-----------------------|-----3-2-0-2-----|
|-5-5-5---5-5-5-5-5-5-5-|-0-3---------3-0-|


   Pre-Coro I
    E S S S S S S S S S S S S S S
||--------------------------------|
||o-------------------------------|
||o-------------------------------|
||--1-1-1-1-1-1-1-1-1-1-1-1-1-1-1-|


  S S S S S S S S S S S S S S S S     E S S E S S E S S E S S
|----------------------------------||--------------------------|
|---------------------------------o||--------------------------|
|---------------------------------o||-3-3-3-3-3-3-2-2-2-2-2-2--|
|-3-3-3-3-3-3-3-3-3-3-3-3-3-3-3-3--||--------------------------|


                                      To Coda
  E S S E S S E S S E S S   E S S E S S Q.   E
|-------------------------|--------------------|
|-------------------------|--------------------|
|-0-0-0-0-0-0-5-5-5-5-5-5-|-7-7-7-7-7-7--------|
|-------------------------|-------------0----3-|


   9/8
    E E E E E E E E E  3x E E E E E E E E E
||---------------------||-------------------|
||o---7-5-------------o||---7-5-------------|
||o-------7-8-5-4-5---o||-------7-8-5-4-5---|
||--5---------------3--||-5---------------3-|


  E E E E E E E E E    E E E E E E E E E
|-----4-------------||--------------------|
|-7-6---3-6---3-----||---5-3--------------|
|-----------5---4---||-------5-6-3-2-3----|
|-----------------1-||-3---------------1--|


                            D.S. al Coda
                     10/8
  E E E E E E E E E   E E E E E E E E E E
|-------------------|---------------------|
|-------------------|-5-------------------|
|-------4---4-7-4-7-|---7-4-7-4---4-7-----|
|-3-3-6---6---------|-----------6-----3-5-|


 Pre-Coro II
  &
 4/4
  E E E E E E E E   E E E E E E E E   E E E E E E E E   E E E E E E E E
|-----------------|-----------------|-----------------|-----------------|
|-----------------|-----------------|-----------------|-----------------|
|-----------------|-----------0-----|-----------------|-----------0-----|
|-0-0-0-1-0-0-0-0-|-0-0-0-1-0---4-1-|-0-0-0-1-0-0-0-0-|-0-0-0-1-0---4-1-|


   Coro Parte I
    $$
    E S S S S S S S S S S S S S S   E S S S S S S S S S S S S S S
||--------------------------------|-------------------------------|
||o-------------------------------|-------------------------------|
||o-------------------------------|-------------------------------|
||--1-1-1-1-1-1-1-1-1-1-1-1-1-1-1-|-3-3-3-3-3-3-3-3-3-3-3-3-3-3-3-|


  E S S S S S S S S S S S S S S
|----------------------------------|
|----------------------------------|
|-5-5-5-5-5-5-5-5-5-5-5-5-5-5-5----|
|----------------------------------|


  E S S E S S E S S E S S   E S S E S S E S S E S S
|-------------------------|-------------------------|
|-------------------------|-------------------------|
|-3-3-3-3-3-3-2-2-2-2-2-2-|-0-0-0-0-0-0-------------|
|-------------------------|-------------3-3-3-3-3-3-|


                                   2/4
  E S S S S S S S S S S S S S S     H
|--------------------------------||------|
|-------------------------------o||------|
|-------------------------------o||------|
|-1-1-1-1-1-1-1-1-1-1-1-1-1-1-1--||-1----|


   Coro Parte II
                             1.                  2.
   4/4                       2/4                 4/4
    S S S S E S S E E S S E   S S S S S S S S     W
||--------------------------|------------------||------|
||o-------------------------|-----------------o||------|
||o-5-5-5-5-5-5-5-3-3-3-3-3-|-----------------o||-1----|
||--------------------------|-3-3-3-3-3-3-3-3--||------|


                       To Dbl. Coda
  +W           E E E E E E E E   W
|------------|-----------------|-------|
|------------|-----------------|-------|
|-(1)--------|-0-0-0-0-0-0-0-0-|-0-----|
|------------|-----------------|-------|


   Pre-Coro
    E S S S S S S S S S S S S S S
||--------------------------------|
||o-------------------------------|
||o-------------------------------|
||--1-1-1-1-1-1-1-1-1-1-1-1-1-1-1-|


  S S S S S S S S S S S S S S S S     E S S E S S E S S E S S
|----------------------------------||--------------------------|
|---------------------------------o||--------------------------|
|---------------------------------o||-3-3-3-3-3-3-2-2-2-2-2-2--|
|-3-3-3-3-3-3-3-3-3-3-3-3-3-3-3-3--||--------------------------|


  E S S E S S E S S E S S   E S S E S S Q.   E
|-------------------------|--------------------|
|-------------------------|--------------------|
|-0-0-0-0-0-0-5-5-5-5-5-5-|-7-7-7-7-7-7--------|
|-------------------------|-------------0----3-|


                 D.S.S. al Dbl. Coda
    E E E E E E E E   E E E E E E E E
||------------------|------------------||
||o-----------------|-----------------o||
||o-----------------|-----------0-----o||
||--0-0-0-1-0-0-0-0-|-0-0-0-1-0---4-1--||


   Puente
                                      Q=145
    &&
                     3/4             4/4
    E E E E E E E E   E E E E E E  3x E. E. E. E. E E
||------------------|--------------||-----------------|
||o-----------------|-------------o||----------5--8---|
||o-5-5-5-5-5-5-5-5-|-5-5-5-5-5-5-o||-5--7--8-------3-|
||------------------|--------------||-----------------|


   Solo De Guitarra
    Q=140
   5/4
    S S S S E S S S S E S S E S S E   S S S S E S S S S E S S E S S E
||----------------------------------|----------------------------------||
||o---------------------------------|-------------------------3-----2-o||
||o-0-0-0-0-3-0-0-0-0-2-0-0-5-0-0-3-|-0-0-0-0-3-0-0-0-0-2-0-0---0-0---o||
||----------------------------------|----------------------------------||


   5/4
    E E E E E E E E E E   E E E E E E E E E E
||----------------------|----------------------||
||o---------------------|---------------------o||
||o-----2-----5-------2-|-----2---------------o||
||--0-0---0-0---0-1-0---|-0-0---0-0-3-0-1-0-1--||


   4/4
    S S E E S S E E S S E
||-------------------------||-|
||o-----------------------o||-|
||o-----------------------o||-|
||--5-5-5---5-5-5-5-5-5-5--||-|


    E S S E E E S S E E     S S E E S S E E S S E
||-----------------------||------------------------|
||o---------------------o||------------------------|
||o---------------------o||------------------------|
||--5-5-5-5-5---5-5-5-5--||-5-5-5---5-5-5-5-5-5-5--|


 5/4
  E E E E E E E E E E   E E E E E E E E E E
|---------------------|---------------------|
|---------------------|---------------------|
|---------------------|-------------------2-|
|-0-0-3-0-0-1-0-5-0-4-|-0-0-3-0-0-1-0-1-0---|


   Solo Harmonizado
   4/4
    E S S S S S S S S S S S S S S
||--------------------------------|
||o-------------------------------|
||o-------------------------------|
||--1-1-1-1-1-1-1-1-1-1-1-1-1-1-1-|


  S S S S S S S S S S S S S S S S     E S S E S S E S S E S S
|----------------------------------||-------------------------|
|---------------------------------o||-------------------------|
|---------------------------------o||-3-3-3-3-3-3-2-2-2-2-2-2-|
|-3-3-3-3-3-3-3-3-3-3-3-3-3-3-3-3--||-------------------------|


  E S S E S S E S S E S S   E S S E S S Q.   E
|-------------------------|--------------------|
|-------------------------|--------------------|
|-0-0-0-0-0-0-5-5-5-5-5-5-|-7-7-7-7-7-7--------|
|-------------------------|-------------0----3-|


   Coro III
    E S S S S S S S S S S S S S S   E S S S S S S S S S S S S S S
||--------------------------------|-------------------------------|
||o-------------------------------|-------------------------------|
||o-------------------------------|-------------------------------|
||--1-1-1-1-1-1-1-1-1-1-1-1-1-1-1-|-3-3-3-3-3-3-3-3-3-3-3-3-3-3-3-|


  E S S S S S S S S S S S S S S
|----------------------------------|
|----------------------------------|
|-5-5-5-5-5-5-5-5-5-5-5-5-5-5-5----|
|----------------------------------|


  E S S E S S E S S E S S   E S S E S S E S S E S S
|-------------------------|-------------------------|
|-------------------------|-------------------------|
|-3-3-3-3-3-3-2-2-2-2-2-2-|-0-0-0-0-0-0-------------|
|-------------------------|-------------3-3-3-3-3-3-|


                                   2/4
  E S S S S S S S S S S S S S S     H
|--------------------------------||------|
|-------------------------------o||------|
|-------------------------------o||------|
|-1-1-1-1-1-1-1-1-1-1-1-1-1-1-1--||-1----|


                             1.                  2.
   4/4                       2/4                 4/4
    S S S S E S S E E S S E   S S S S S S S S     W          +W
||--------------------------|------------------||----------|--------|
||o-------------------------|-----------------o||----------|--------|
||o-5-5-5-5-5-5-5-3-3-3-3-3-|-----------------o||-1--------|-(1)----|
||--------------------------|-3-3-3-3-3-3-3-3--||----------|--------|


   4/4
    E E E E E E E E   E E E E E E E E
||------------------|------------------||-|
||o-----------------|-----------------o||-|
||o-----------------|-----------0-----o||-|
||--0-0-0-1-0-0-0-0-|-0-0-0-1-0---4-1--||-|


    E S S S S S S S S E S S S S   E S S S S S S S S E E E
||------------------------------|----------------------------||
||o-----------------------------|---------------------------o||
||o-----------------------------|-------------------0-------o||
||--0-0-0-0-0-1-1-0-0-0-0-0-0-0-|-0-0-0-0-0-1-1-0-0---4-1----||


   Outro
   9/8
    E E E E E E E E E  3x E E E E E E E E E
||---------------------||-------------------|
||o---7-5-------------o||---7-5-----------5-|
||o-------7-8-5-4-5---o||-------7-8-5-4-5---|
||--5---------------3--||-5-----------------|


  E E E E E E E E E    E E E E E E E E E
|-----4-------------||--------------------|
|-7-6---3-6---3-----||---5-3--------------|
|-----------5---4---||-------5-6-3-2-3----|
|-----------------1-||-3---------------1--|


                                          Q=136                Q=68
                                                          4/4
  E E E E E E E E E   E E E E E E E E E   Q   H..          Wx2
|-------------------|-------------------|---------------||---------*|
|-------------------|-5-----------------|---------------||---------*|
|-------4---4-7-4-7-|---7-4-7-4---4-7---|---------------||---------*|
|-3-3-6---6---------|-----------6-----3-|-5\------------||---------*|



Duration Legend
---------------
W - whole; H - half; Q - quarter; E - 8th; S - 16th; T - 32nd; X - 64th; a - acciaccatura
+ - note tied to previous; . - note dotted; .. - note double dotted
Uncapitalized letters represent notes that are staccato (1/2 duration)
Irregular groupings are notated above the duration line
Duration letters will always appear directly above the note/fret number it represents the
duration for.  Duration letters with no fret number below them represent rests.  Multi-
bar rests are notated in the form Wxn, where n is the number of bars to rest for.  Low
melody durations appear below the staff

Tablature Legend
----------------
 h   - hammer-on
 p   - pull-off
 b   - bend
 pb  - pre-bend
 r   - bend release (if no number after the r, then release immediately)
 /\  - slide into or out of (from/to "nowhere")
 s   - legato slide
 S   - shift slide
 - natural harmonic
[n]  - artificial harmonic
n(n) - tapped harmonic
 ~   - vibrato
 tr  - trill
 T   - tap
 TP  - trem. picking
 PM  - palm muting
\n/  - tremolo bar dip; n = amount to dip
 \n  - tremolo bar down
 n/  - tremolo bar up
/n\  - tremolo bar inverted dip
 =   - hold bend; also acts as connecting device for hammers/pulls
 <> - volume swell (louder/softer)
 x   - on rhythm slash represents muted slash
 o   - on rhythm slash represents single note slash

Misc Legend
-----------
 |  - bar
||  - double bar
||o - repeat start
o|| - repeat end
*|  - double bar (ending)
 :  - bar (freetime)
 $  - Segno
 &  - Coda
Tempo markers -  = BPM(8/16=s8/s16), where s8 = swing 8ths, s16 = swing 16ths
            
Submit corrections

comments powered by Disqus
↑ Back to top | Avalanch Bass for Cambaral. Lyrics for acoustic guitar and electric guitar. 1 Tablatures and chords are parodies/interpretations of the original songs. You may use it for private study, scholarship, research or language learning purposes only