» » »

A Vain Attempt, Trust Is A Rarity Tabs (ver.1)

Artists:  A B C D E F G H I J K L M N O P Q R S T U V W X Y Z # 

Trust Is A Rarity Tabs (ver.1)

A Vain Attempt Tabs
Rating:
5/5 (2 votes)
Trust Is A Rarity lessons Tabs too difficult? Try these video lessons and learn fast
                (Intro)
a vain attempt
trust is a rarity

(INTRO)

e--------------------------------------------------|    
B------------------------------------------5-6--5--|    
G------5-----------5-----------5---------5-------5-|
D----3---3-------3---3-------3---3-----------------| Repeat
A--5-----------3-----------1-----------3-----------|    
E--------------------------------------------------| 



(VERSE)
e-----------------------|       
B-----------------------|       
G-----2-3-2-------------|
D-----------3-----------| Repeat 3x
A-----------------------|       
E-----------------------| 


e-----------------------|       
B-----------------------|       
G---2-3-2-3-2-----------|
D-------------3-2-3-----|
A-----------------------|       
E-----------------------|


will be updated soon!!
thx to 'jQ' coz promoting this song to us..
            

comments powered by Disqus
↑ Back to top | A Vain Attempt Tabs for Trust Is A Rarity. Lyrics for acoustic guitar and electric guitar. Tablatures and chords are parodies/interpretations of the original songs. You may use it for private study, scholarship, research or language learning purposes only