>
 >
Red Bloody Roses

Red Bloody Roses Guitar Tabs

A Vain Attempt - Red Bloody Roses chords, tabs, tablatures, lyrics

Guitar lessons | Add/correct | Request | Top 50 tabs Artists:  A B C D E F G H I J K L M N O P Q R S T U V W X Y Z 0-9

Red Bloody Roses Guitar Tabs – A Vain Attempt

CD, Sheet music, Poster

Do you like Red Bloody Roses? Share with your friends now
Tabs
Hello! I will tab more A Vain Attempt Songs if I can :D


Drop D

E||-------|-------|-------|-------|-------|---------------------------|
B||-------|-------|-------|-------|-------|---------------------------|
G||-------|-------|-------|-------|-------|--------7-----9-----10-----|
D||-------|-------|-------|-------|-------|---------------------------|
A||-------|-------|-------|-------|-------|--0--0---------------------|
D||-------|-------|-------|-------|-------|--0--0-----0-----0------0--|
                                             .  .     .     .      .

--------------------------|---------------------------|--------------------|
--------------------------|---------------------------|--8-----10----------|
--9-----5-----7-----5-----|--------7-----9-----10-----|--------------9~----|
--------------------------|---------------------------|--------------------|
--------------------------|--0--0---------------------|--------------------|
-----0-----0-----0--------|--0--0-----0-----0------0--|-----0--------------|
     .     .     .           .  .     .     .      .        .

---------------------------|--------------------------|
---------------------------|--------------------------|
--------7-----9-----10-----|--9-----5-----7-----5-----|
---------------------------|--------------------------|
--0--0---------------------|--------------------------|
--0--0-----0-----0------0--|-----0-----0-----0--------|
  .  .     .     .      .        .     .     .
     
---------------------------|------------------------||---------------------|
---------------------------|--8-----10--------------||---------------------|
--------7-----9-----10-----|--------------9~--------||*--------7----9----10|
---------------------------|------------------------||*--------------------|
--0--0---------------------|------------------------||---0--0--------------|
--0--0-----0-----0------0--|-----0------------------||---0--0--------------|
  .  .     .     .      .        .                       .  .
  
----------------------|------------------------|-----------------------|
----------------------|------------------------|--8----10--------------|
--9----5----7----5----|--------7----9----10----|-------------9~--------|
----------------------|------------------------|-----------------------|
----------------------|--0--0------------------|-----------------------|
----------------------|--0--0------------------|-----------------------|
                         .  .
 
------------------------|----------------------|------------------------|
------------------------|----------------------|------------------------|
--------7----9----10----|--9----5----7----5----|--7-------9-------10----|
------------------------|----------------------|------------------------|
--0--0------------------|----------------------|------------------------|
--0--0------------------|----------------------|------------------------|
  .  .
 
---------------------||-------------------|-------------------|
---------------------||-------------------|-------------------|
--9~----------------*||-------------------|-------------------|
--------------------*||-------------------|-------------------|
---------------------||--0----------------|-------------------|
---------------------||--0----------------|-------------------|
                       
                      BAR 1                          BAR 2
-------------------|---------------------------|--------------------------|
-------------------|---------------------------|--------------------------|
-------------------|---------------------------|--------------------------|
-------------------|---------------------------|--------------------------|
-------------------|--8--8--8--8--7--8--8--10--|-----7--8--8--7--8--7-----|
-------------------|---------------------------|-----------------------8--|
                     PM------------------------------------------------->

BAR 3                         BAR 4
---------------------------|-------------------------|
---------------------------|-------------------------|
---------------------------|-------------------------|
---------------------------|-------------------------|
--------8--7--7--8--7------|---------8--7--10--------|
-----8-----------------10--|-----10------------------|
PM--------------------------------------------->

BAR 5                         BAR 6
---------------------------|--------------------------|
---------------------------|--------------------------|
---------------------------|--------------------------|
---------------------------|--------------------------|
--8--8--8--8--7--8--8--10--|-----7--8--8--7--8--7-----|
---------------------------|-----------------------8--|
------------------------------------------------------>

BAR 7                            BAR 8
---------------------------|-----------------------------|
---------------------------|-----------------------------|
---------------------------|-----------------------------|
---------------------------|-----------------------------|
--------8--7--7--8--7------|---------10--8--7--8--7------|
-----8-----------------10--|-----10------------------10--|
PM---------------------------------------------------->

BAR 9                            BAR 10
---------------------------|--------------------------|
---------------------------|--------------------------|
---------------------------|--------------------------|
---------------------------|--------------------------|
--8--8--8--8--7--8--8--10--|-----7--8--8--7--8--7-----|
---------------------------|-----------------------8--|
PM-------------------------------------------------->

BAR 11                         BAR 12
---------------------------|-----------------------------|
---------------------------|-----------------------------|
---------------------------|-----------------------------|
---------------------------|-----------------------------|
--------8--7--7--8--7------|---------10--8--7--8--7------|
-----8-----------------10--|-----10------------------10--|
PM----------------------------------------------------->

---------------------------|--------------------------|
---------------------------|--------------------------|
---------------------------|--------------------------|
---------------------------|--------------------------|
--8--8--8--8--7--8--8--10--|-----7--8--8--7--8--7-----|
---------------------------|-----------------------8--|
PM-------------------------------------------------->

---------------------------|-----------------------------|
---------------------------|-----------------------------|
---------------------------|-----------------------------|
---------------------------|-----------------------------|
--------8--7--7--8--7------|---------10--8--7--8--7------|
-----8-----------------10--|-----10------------------10--|
PM----------------------------------------------------->

Guitar 2 starts playing this at BAR 11:
|--------------------------|
|--------------------------|
|--7--7--7--7--5--7--7--7--|
|--------------------------|
|--------------------------|
|--------------------------|

---------------------------|-----------------------------|
---------------------------|-----------------------------|
--10--7--9--7--7--9--7-----|--------10--7--9--10--9------|
------------------------8--|-----8-------------------10--|
---------------------------|-----------------------------|
---------------------------|-----------------------------|

---------------------------|--------------------------|
---------------------------|--------------------------|
----------10--9--12--------|--7--7--7--7--5--7--7--7--|
------10-------------------|--------------------------|
---------------------------|--------------------------|
---------------------------|--------------------------|

---------------------------|-----------------------------|
---------------------------|-----------------------------|
--10--7--9--7--7--9--7-----|--------10--7--9--10--9------|
------------------------8--|-----8-------------------10--|
---------------------------|-----------------------------|
---------------------------|-----------------------------|

---------------------------|
---------------------------|
----------10--9--12--------|
------10-------------------|
---------------------------|
---------------------------|
 
Back to Guitar 1:

--------------------------|--------------------------|
--------------------------|--------------------------|
--------------------------|--------------------------|
--------------------------|--------------------------|
--0--0-----------------0--|-----0--0--------0--0-----|
--0--0-----------------0--|-----0--0--------0--0-----|
 
--------------------------|---------------------|--------------------------|
--------------------------|---------------------|--------------------------|
--------------------------|---------------------|--------------------------|
--------------------------|--10--------8--------|--------------------------|
-----0--0-----------x--x--|---------------------|--0--0-----------------0--|
-----0--0-----------x--x--|---------------------|--0--0-----------------0--|

--------------------------|--------------------------|--------------------|
--------------------------|--------------------------|--------------------|
--------------------------|--------------------------|--------------------|
--------------------------|--------------------------|--8--------7--------|
-----0--0--------0--0-----|-----0--0-----------x--x--|--------------------|
-----0--0--------0--0-----|-----0--0-----------x--x--|--------------------|

--------------------------|--------------------------|
--------------------------|--------------------------|
--------------------------|--------------------------|
--------------------------|--------------------------|
--0--0-----------------0--|-----0--0--------0--0-----|
--0--0-----------------0--|-----0--0--------0--0-----|

--------------------------|---------------------|--------------------------|
--------------------------|---------------------|--------------------------|
--------------------------|---------------------|--------------------------|
--------------------------|--10--------8--------|--------------------------|
-----0--0-----------x--x--|---------------------|--0--0-----------------0--|
-----0--0-----------x--x--|---------------------|--0--0-----------------0--|
      
--------------------------|--------------------------|--------------------|
--------------------------|--------------------------|--------------------|
--------------------------|--------------------------|--------------------|
--------------------------|--------------------------|--8--------7--------|
-----0--0--------0--0-----|-----0--0-----------x--x--|--------------------|
-----0--0--------0--0-----|-----0--0-----------x--x--|--------------------|
 
---------------------------|--------------------------|
---------------------------|--------------------------|
---------------------------|--------------------------|
---------------------------|--------------------------|
--------8-----10-----8-----|--7-----8-----7-----8-----|
--8--8-----8------8-----8--|-----8-----8-----8--------|

---------------------------|---------------------------|
---------------------------|---------------------------|
---------------------------|---------------------------|
---------------------------|---------------------------|
--------8-----10-----8-----|--7-----8-----7------------|
--8--8-----8------8-----8--|-----8-----8---------------|
 
---------------------------|--------------------------|
---------------------------|--------------------------|
---------------------------|--------------------------|
---------------------------|--------------------------|
--------8-----10-----8-----|--7-----8-----7-----8-----|
--8--8-----8------8-----8--|-----8-----8-----8--------|
  
---------------------------|---------------------------|
---------------------------|---------------------------|
---------------------------|---------------------------|
---------------------------|---------------------------|
--------8-----10-----8-----|--7-----8-----7------------|
--8--8-----8------8-----8--|-----8-----8---------------|

---------------------------|--------------------------|
---------------------------|--------------------------|
---------------------------|--------------------------|
---------------------------|--------------------------|
--------8-----10-----8-----|--7-----8-----7-----8-----|
--8--8-----8------8-----8--|-----8-----8-----8--------|

---------------------------|---------------------------|
---------------------------|---------------------------|
---------------------------|---------------------------|
---------------------------|---------------------------|
--------8-----10-----8-----|--7-----8-----7------------|
--8--8-----8------8-----8--|-----8-----8---------------|

---------------------------|--------------------------|
---------------------------|--------------------------|
---------------------------|--------------------------|
---------------------------|--------------------------|
--------8-----10-----8-----|--7-----8-----7-----8-----|
--8--8-----8------8-----8--|-----8-----8-----8--------|
    
---------------------------|----------------------------|------------------|
---------------------------|----------------------------|------------------|
---------------------------|----------------------------|------------------|
---------------------------|----------------------------|------------------|
--------8-----10-----8-----|--7-----8-----12------------|--10--------8-----|
--8--8-----8------8-----8--|-----8-----8----------------|------------------|

(Keyboard is here)

-------------------|-------------------||---------------------------|
-------------------|-------------------||---------------------------|
-------------------|-------------------||*--7--7--7--7--7--7--7--7--|
-------------------|-------------------||*--------------------------|
-------------------|-------------------||---5--5--5--5--5--5--5--5--|
-------------------|-------------------||---------------------------|
  
--------------------------|----------------------------------|
--------------------------|----------------------------------|
--7--7--7--7--9--9--9--9--|--10--10--10--10--10--10--10--10--|
--------------------------|----------------------------------|
--5--5--5--5--7--7--7--7--|---8---8---8---8---8---8---8---8--|
--------------------------|----------------------------------|
  
----------------------------------|----------------------------------|
----------------------------------|----------------------------------|
--10--10--10--10--12--12--12--12--|--14--14--14--14--14--14--14--14--|
----------------------------------|----------------------------------|
---8---8---8---8--10--10--10--10--|--12--12--12--12--12--12--12--12--|
----------------------------------|----------------------------------|

----------------------------------|----------------------------------|
----------------------------------|----------------------------------|
--14--14--14--14--14--14--14--14--|--12--12--12--12--12--12--12--12--|
----------------------------------|----------------------------------|
--12--12--12--12--12--12--12--12--|--10--10--10--10--10--10--10--10--|
----------------------------------|----------------------------------|

                               4x  
-------------------------------||---------------------------|
-------------------------------||---------------------------|
--12--12--12--12--9--9--9--9--*||--------7-----9-----10-----|
------------------------------*||---------------------------|
--10--10--10--10--7--7--7--7---||--0--0---------------------|
-------------------------------||--0--0-----0-----0------0--|
                                   .  .     .     .      .
--------------------------|---------------------------|--------------------|
--------------------------|---------------------------|--8-----10----------|
--9-----5-----7-----5-----|--------7-----9-----10-----|--------------9~----|
--------------------------|---------------------------|--------------------|
--------------------------|--0--0---------------------|--------------------|
-----0-----0-----0--------|--0--0-----0-----0------0--|-----0--------------|
     .     .     .           .  .     .     .      .        .  
------------------------|----------------------|------------------------|
------------------------|----------------------|------------------------|
--------7----9----10----|--9----5----7----5----|--7-------9-------10----|
------------------------|----------------------|------------------------|
--0--0------------------|----------------------|------------------------|
--0--0------------------|----------------------|------------------------|
  .  .                                       
--------------------|------------------------|----------------------|
--------------------|------------------------|----------------------|
--9~----------------|--------7----9----10----|--9----5----7----5----|
--------------------|------------------------|----------------------|
--------------------|--0--0------------------|----------------------|
--------------------|--0--0------------------|----------------------|
                       .  .
------------------------|-----------------------|------------------------|
------------------------|--8----10--------------|------------------------|
--------7----9----10----|-------------9~--------|--------7----9----10----|
------------------------|-----------------------|------------------------|
--0--0------------------|-----------------------|--0--0------------------|
--0--0------------------|-----------------------|--0--0------------------|
  .  .                                             .  .               
----------------------|------------------------|--------------------|
----------------------|------------------------|--------------------|
--9----5----7----5----|--7-------9-------10----|--9~----------------|
----------------------|------------------------|--------------------|
----------------------|------------------------|--------------------|
----------------------|------------------------|--------------------|

(Keyboard is here)

I'm unsure on this part, don't play the notes on the g string if it sounds wrong
|---------------------------|
|---------------------------|
|*--7--7--7--7--7--7--7--7--|
|*--------------------------|
|---5--5--5--5--5--5--5--5--|
|---------------------------|

--------------------------|----------------------------------|
--------------------------|----------------------------------|
--7--7--7--7--9--9--9--9--|--10--10--10--10--10--10--10--10--|
--------------------------|----------------------------------|
--5--5--5--5--7--7--7--7--|---8---8---8---8---8---8---8---8--|
--------------------------|----------------------------------|
   
----------------------------------|----------------------------------|
----------------------------------|----------------------------------|
--10--10--10--10--12--12--12--12--|--14--14--14--14--14--14--14--14--|
----------------------------------|----------------------------------|
---8---8---8---8--10--10--10--10--|--12--12--12--12--12--12--12--12--|
----------------------------------|----------------------------------|

----------------------------------|----------------------------------|
----------------------------------|----------------------------------|
--14--14--14--14--14--14--14--14--|--12--12--12--12--12--12--12--12--|
----------------------------------|----------------------------------|
--12--12--12--12--12--12--12--12--|--10--10--10--10--10--10--10--10--|
----------------------------------|----------------------------------|


                               4x          
-------------------------------||-------------------|
-------------------------------||-------------------|
--12--12--12--12--9--9--9--9--*||-------------------|
------------------------------*||-------------------|
--10--10--10--10--7--7--7--7---||--0----------------|
-------------------------------||--0----------------|
  
---------------------------|-----------------------|-----------------------|
---------------------------|-----------------------|-----------------------|
---------------------------|-----------------------|-----------------------|
--8--8--7--8--10--8--7--8--|--10----8----7----8----|--10----8----7----8----|
---------------------------|-----------------------|-----------------------|
---------------------------|-----------------------|-----------------------|

                      Keep doing this for the rest of the song
-------------------|--12--5--8--10--5--8--12--5--|--8--13--5--8--||
-------------------|--t---------t---------t------|-----t---------||
-------------------|-----------------------------|---------------||
-------------------|-----------------------------|---------------||
--0----------------|-----------------------------|---------------||
--0----------------|-----------------------------|---------------||





Comments


Popular A Vain Attempt tabs & chords
I Saw Her Face Chords
I Saw Her Face 1 Chords
I Cant Escape Tabs
I Cant Escape Intro Tabs
I Saw Her Face Tabs
I Saw Her Face 1 Tabs
Trust Is A Rarity Intro Tabs
You Broke My Heart Tabs
I Saw Her Face Ukulele


Song lyrics



↑ Back to top | Tablatures and chords are parodies/interpretations of the original songs. You may use it for private study, scholarship, research or language learning purposes only
© 2014 AZChords.com Contact us | Privacy policy | DMCA | Add/correct tabs | Request tabs | Top 50 tabs