» » »

A Vain Attempt, I Saw Her Face Tabs (ver.2)

Artists:  A B C D E F G H I J K L M N O P Q R S T U V W X Y Z # 

I Saw Her Face Tabs (ver.2)

A Vain Attempt Tabs
 Rating:
4/5 (4 votes)
I Saw Her Face lessons Tabs too difficult? Try these video lessons and learn fast
                i love diz song ..so i figure diz tab..corectly 100%..

drop d tunning

intro
gtr 2(piano convert in guitar)

e|-----------------------------------|
b|-----------------------------------|
g|----4------4-7---------4-----------|
d|------5-----------------5----------|repeat 2x
a|--3------0-------------------------|
d|----------------3~--5--------------|
    i saw her face.......

e|-----------------------------------------|
b|--------------------------10~-10-8-------|
g|--9-------9-------9----------------------|
d|----12-10---12-10---12-10----------------|
a|-----------------------------------------|
d|-----------------------------------------|

gtr 1

e|--------------------------------------------------------------------|
b|--------------------------------------------------------------------|
g|--5-555-55555-------------------------------------------------------|
d|--5-555-55555-7-777-77777-3-333-33333-5-555-55555-------------------|
a|--3-333-33333-7-777-77777-3-333-33333-5-555-55555-------------------|
d|--------------7-777-77777-3-333-33333-5-555-55555-------------------|

gtr 2 

e|-----------------------------------|
b|-----------------------------------|
g|--5----7----9----------------------|
d|--x-8x-x-8x-x-16x------------------|2x
a|--3----5----7----------------------|
d|-----------------------------------|

gtr 1

e|-------------------------------------------------------|
b|-------------------------------------------------------|
g|--55555555--77777777--99999999-------------------------|
d|--33333333--55555555--77777777-------------------------|2x
a|--33333333--55555555--77777777-------------------------|
d|--33333333--55555555--77777777-------------------------|

gtr 2 n 1

e|-------------------------------------------------------|
b|-------------------------------------------------------|
g|--1212121212121212--99999999--55555555--77777777-------|
d|--1010101010101010--77777777--33333333--55555555-------|repeat 3x
a|--1010101010101010--77777777--33333333--55555555-------|
d|--1010101010101010--77777777--33333333--55555555-------|

outro 

gtr 2

e|----------------------|
b|----------------------|
g|----------------------|
d|--10------------------|
a|--10------------------|
d|--10------------------|

gtr 1

e|----------------------|
b|----------------------|
g|----------------------|
d|--5-------------------|
a|--5-------------------|
d|--3-------------------|
            
Submit corrections

comments powered by Disqus
↑ Back to top | A Vain Attempt Tabs for I Saw Her Face. Lyrics for acoustic guitar and electric guitar. Tablatures and chords are parodies/interpretations of the original songs. You may use it for private study, scholarship, research or language learning purposes only