» » »

A Vain Attempt, I Saw Her Face Tabs (ver.1)

Artists:  A B C D E F G H I J K L M N O P Q R S T U V W X Y Z # 

I Saw Her Face Tabs (ver.1)

A Vain Attempt Tabs
 Rating:
4.4/5 (7 votes)
I Saw Her Face lessons Tabs too difficult? Try these video lessons and learn fast
                I Saw Her Face- A Vain Attempt




Tuning: standard
The best of all post hardcore band I ever known...Love it!!!
I did not show the strumming, so just listen to the song and figure it out...HARDLY 
TO MY ONE AND ONLY BLUE!!!Trust me ..k?!


Starts w/ the piano. Guitar 1 comes at 0:13

(1st part)


Guitar 1 no distortion                I think this is the right one!
e|-------------------------------|   e|-------------------------------|
B|--1--1--1--1-------------------|   B|--3-----1--3-------------------|
G|-----2--2----------------------|   G|--5--5--2--4-------------------|
D|--2--2--3----------------------|OR D|--5--7--3--5-------------------|
A|--3--------2-------------------|   A|--3--7--3--5-------------------|
E|-----------3-------------------|   E|-----5--1--3-------------------|

Guitar 2 (last part, w/ the piano) no distortion
e|--------------------------------------------------------------------|
B|-------------------------------10~-10-8~----------------------------|
G|--9-7-5--9-7-5--9-7-5--9-7-5\---------------------------------------|
D|--------------------------------------------------------------------|
A|--------------------------------------------------------------------|
E|--------------------------------------------------------------------|


(2nd part)


Guitar 1 & 2 distorted
e|--------------|
B|--------------|
G|--------------|
D|--3--5--7-----|repeat 4x
A|--3--5--7-----|
E|--1--3--5-----|

Guitar 2 (starts in “love w/ her”)
e|-------------------------------|
B|-------------------------------|
G|--5--7--9--10------------------|
D|--x--x--x--x-------------------|repeat 2x
A|--3--5--7--8-------------------|
E|-------------------------------|

(3rd part)


Guitar 1
e|---------------------|
B|---------------------|
G|--5------------------|
D|--5--7--3--5---------|repeat 4x
A|--3--7--3--5---------|
E|-----5--1--3---------|


Guitar 2
e|---------------------------------|
B|---------------------------------|
G|--5--4--7------9---5--4--5-------|
D|--x--x--x--2x--x---x--x--x-------|repeat 4x
A|--3--2--5------7---3--2--3-------|
E|---------------------------------|


Guitar 1 ending
e|-------|
B|-------|
G|--5~---|
D|--5~---|
A|--3~---|
E|-------|


Guitar 2 ending
e|-------|
B|-------|
G|--5~---|
D|--x~---|
A|--3~---|
E|-------|
            
Submit corrections

comments powered by Disqus
↑ Back to top | A Vain Attempt Tabs for I Saw Her Face. Lyrics for acoustic guitar and electric guitar. Tablatures and chords are parodies/interpretations of the original songs. You may use it for private study, scholarship, research or language learning purposes only