» » »

Automatic Loveletter, August 28th 3 30 Am Bass tabs (ver.1)

Artists:  A B C D E F G H I J K L M N O P Q R S T U V W X Y Z # 

August 28th 3 30 Am Bass tabs (ver.1)

Automatic Loveletter Tabs
 Rating:
4.2/5 (5 votes)
August 28th 3 30 Am lessons Tabs too difficult? Try these video lessons and learn fast
                Band: automatic love letter

Intro

G|----------------------------------|
D|-----------------------------5554-| 
A|-55555555-------------------------| x2
E|---------33333333555555557777-----|

Pause

0:41

G|----------------------------------|
D|----------------------------------| 
A|----------------------------------|
E|-7777777755555555777777773~-------|

Chorus 0:51

G|----------------------------------|
D|----------------------------------| 
A|-5555555---------------54--45-----| x2
E|--------533333232555555--77--3332-|

Bridge 1:12

G|----------------------------------|
D|----------------------------------| 
A|---------55---------------55------| x3
E|-3355~\----53~\---3355~\----77~\--|

1:43

G|----------------------------------|
D|---------------24------54---------| 
A|-22222254--------222222-----5-5~--|
E|---------555555----------333—3----|

Chorus 1:53

G|----------------------------------|
D|----------------------------------| 
A|-----------------------54--45-----|
E|---------33333232555555--77--3332-|

G|-----------------------76--67-----|
D|--------455555554777777--99--5554-| 
A|-5555555--------------------------| 
E|----------------------------------|

Bridge 2:14

G|------------------|
D|------------------| 
A|------------------|
E|-2222222255553202-|

G|----------------------------------|
D|----------------------------------| 
A|-----------------5555555544444444-|
E|-3333333355555555-----------------|

G|----------------------------------|
D|----------------------------------| 
A|-----------------555555554~-------|
E|-3333333355555555-----------------|

Pause

Chorus 2:50

G|----------------------------------|
D|----------------------------------| 
A|-5555555---------------54--45-----|
E|--------533333232555555--77--3332-|

G|-----------------------76--67-----|
D|--------455555554777777--99--5554-| 
A|-5555555--------------------------| 
E|----------------------------------|

G|----------------------------------|
D|-----------------------------5554-| 
A|-55555555-------------------------|
E|---------33333333555555557777-----|

G|-----------------------76---555---|
D|--------455555554777777--999---55~| 
A|-5555555--------------------------| 
E|----------------------------------|
            
Submit corrections

comments powered by Disqus
↑ Back to top | Automatic Loveletter Bass for August 28th 3 30 Am. Lyrics for acoustic guitar and electric guitar. Tablatures and chords are parodies/interpretations of the original songs. You may use it for private study, scholarship, research or language learning purposes only