>
 >
Always Wanted

Always Wanted Guitar Tabs

Automatic Loveletter - Always Wanted chords, tabs, tablatures, lyrics

Guitar lessons | Add/correct | Request | Top 50 tabs Artists:  A B C D E F G H I J K L M N O P Q R S T U V W X Y Z 0-9

Always Wanted Guitar Tabs – Automatic Loveletter

CD, Sheet music, Poster

Do you like Always Wanted? Share with your friends now
Tabs
Automatic Loveletter Ė Always wanted

This is my first tab so some parts may be a little wrong, but It seems to work fine if I 
play along to the song. So enjoy! :D

Capo on 3rd fret

Chords
Em - 022000
C  - 032010
G  - 320003
Bm - x24432
A7 - x02020
D  - xx0232
A  - x02220

Intro:
 |          (Em)        ||            (C)          |
e|---------------------------------------------------|
B|------------------------------1-----------1--------|
G|-------0----------0---------0---0-------0---0------|
D|-----2---2------2---2-----2-------2---2-------2----|
A|---2------2---2-------2-3-----------3-----------3--|
E|-0----------0--------------------------------------|

 |            (G)         | |         (Bm)        |
e|-----------------------------------2------------2----|
B|-----------------------------------3------------3----|
G|-------0-----------0------------4--4--------4---4--4-|
D|-----0---0-------0---0-------4-----4-----4------4----|
A|---2-------2---2-------2--2--------2--2---------2----|
E|-0-----------0---------------------------------------|

 |            (C)          ||            (G)                  |
e|-------------------------------------------------------------|
B|-------1------------1----------------------------------------|
G|-----0---0--------0---0----------0---------------0-----------|
D|---2-------2----2------2-------0---0----------0-----0--------|
A|-3-----------3-----------3---2-------2-----2-----------2-----|
E|---------------------------3------------3-----------------3ó-|

 |  (A7) |
e|--0----0-|
B|--2----2-|
G|--0----0-|
D|--2----2-|
A|--0----0-|
E|---------|


Verse:
       Em            C
And I'm missing you
          G            Bm
I'm the loneliest out here
    C            G        A7 (stop)
but Iíll win yes I swear oh

    Em            C
And I'm missing home
      G         Bm
I starve for attention
      C
Paralyzed with fear
G           A7 (stop)
And it shows

           Em            C
And it's just like you said
        G              Bm
There would be when i left
     C               G                A7 (stop)
I never thought when i left you knew best
     Em         C             G              Bm
So i brown paper back this Solution to just quit
       C        G
An illusion is best fit
A7             G          Bm
Terrified that i already did

Until you said


Chorus:
Em          C
Don't worry, I'll fix this
G                    D
Just like you always say
Em           C
So Iím sorry, forgive me
G                D
You're always wanted


Verse:
                Em           C
This can't be happening to me
   G           Bm
Addressing my world of
C               G         A7
Depression, of war secretly
      Em      C          G           Bm
Purposely I fight off mistakes I've done
G             C                 A7
To throw my flaws and miss you boy
G            A7
Still you smile


Chorus:
Em          C
Don't worry, I'll fix this
G              D
You say once again
Em           C
So Iím sorry, forgive me
G                 D
You're always wanted


Bridge:
         G      D               A
And suddenly I see what you've done
      G      D      A
So sorry it had to take me this long to say:
G        D          A
You brightened my life
         G               D       A
And you deserve to rest easy in your bed tonight
            G               D          A
Yeah, you deserve just to know that you're my shining light


Chorus:
Em
So don't worry
C
I'm okay
G             D
I'll be just fine
Em
And I'm sorry
C
Please forgive me
G                 D
You're always wanted
        G
So suddenly





Comments


Popular Automatic Loveletter tabs & chords
The Answer Bass Tabs
Can't Move On Chords
Eyes On You Chords
I Notice Chords
The Curtain Close Chords
To Die For 2 Chords
Eyes On You Ukulele
Makeup Smeared Eyes Ukulele
To Die For Ukulele
To Die For 2 Ukulele


Song lyrics



↑ Back to top | Tablatures and chords are parodies/interpretations of the original songs. You may use it for private study, scholarship, research or language learning purposes only
© 2014 AZChords.com Contact us | Privacy policy | DMCA | Add/correct tabs | Request tabs | Top 50 tabs