» » »

Turnstile Blues Tabs (ver.1)

Artists:  A B C D E F G H I J K L M N O P Q R S T U V W X Y Z # 

Turnstile Blues Tabs (ver.1)

Autolux
Rating:
5/5 (2 votes)

Hard to play? Try these video lessons and learn fast.
                
Tuning:Standard

(Intro Riff)
e|--------------------|
B|--------------------|
G|--------------------|
D|-----------------8--|
A|----8---------8-----|
E|--6---6----6--------|

(Chorus Riff)
e|------------------------------------------------|
B|------------------------------------------------|
G|-6b7r6--6--6--3---3-----5--6b7r6--6--6--3---3---|
D|------------------------------------------------|
A|------------------------------------------------|
E|------------------------------------------------|

(Second Prechorus)
e|------------------------------------------|
B|------------------------------------------|
G|------------------------------------------|
D|------------------------------------------|
A|-/13--13-13--13-13-13--13\--4-4-4-4--4-4--|
E|------------------------------------------|

(Second Prechorus Ending)
e|--------|
B|--------|
G|--------|
D|--------|
A|-13b14--|
E|--------|

(Second Chorus Ending)
e|---------|
B|--5--4---|
G|---------|
D|---------|
A|---------|
E|---------|

(Verse Fill)
e|----------|
B|---3-4----|
G|-5--------|
D|----------|
A|----------|
E|----------|

(Outro Prechorus)
e|----------------------------------------|
B|----------------------------------------|
G|----------------------------------------|
D|----------------------------------------|
A|--\8~----------8\3~-----------/11--11---|
E|----------------------------------------|

(Outro Prechorus Ending)
e|-------------|
B|-------------|
G|-------------|
D|-------------|
A|-\3---3b4~---|
E|-------------|

(Outro Riff)
e|---------------------------|
B|-17-16-----13-14-----------|
G|------------------15--15---|
D|---------------------------|
A|---------------------------|
E|---------------------------|

| /  slide up
| \  slide down
| h  hammer-on
| p  pull-off
| ~  vibrato
| +  harmonic
| x  Mute note
===============================================================================
            
Hard to play? Try these video lessons and learn fast. | Correct




comments powered by Disqus
↑ Back to top | Tablatures and chords are parodies/interpretations of the original songs. You may use it for private study, scholarship, research or language learning purposes only