» » »

Autolux, Plantlife Tabs (ver.2)

Artists:  A B C D E F G H I J K L M N O P Q R S T U V W X Y Z # 

Plantlife Tabs (ver.2)

Autolux Tabs
 Rating:
4/5 (4 votes)
Plantlife lessons Tabs too difficult? Try these video lessons and learn fast
                This is Plantlife by Autolux off the Future Perfect album.

* = use your thumb
tuning: (from low to high) Eb Ab Db Gb Bb eb
 verse 1(clean)
e----------------------------------------------------------------------|
B----------------------------------------------------------------------|
G-7-7-7-7-7-7-7-7-7-7-7-7-7-7-7-7-9-9-9-9-9-9-9-9-4-4-4-4-4-4-4-4------|
D-5-5-5-5-5-5-5-5-5-5-5-5-5-5-5-5-7-7-7-7-7-7-7-7-2-2-2-2-2-2-2-2------|
A-6-6-6-6-6-6-6-6-7-7-7-7-7-7-7-7-8-8-8-8-8-8-8-8-3-3-3-3-3-3-3-3------|
E----------------------------------------------------------------------|

Do that riff four times.

 verse 2(heavy distortion)
e----------------------------------------------------------------------|
B----------------------------------------------------------------------|
G-7-7-7-7-7-7-7-7-7-7-7-7-7-7-7-7-9-9-9-9-9-9-9-9-4-4-4-4-4-4-4-4------|
D-5-5-5-5-5-5-5-5-5-5-5-5-5-5-5-5-7-7-7-7-7-7-7-7-2-2-2-2-2-2-2-2------|
A-6-6-6-6-6-6-6-6-7-7-7-7-7-7-7-7-8-8-8-8-8-8-8-8-3-3-3-3-3-3-3-3------|
E-6-6-6-6-6-6-6-6-0-0-0-0-0-0-0-0-8-8-8-8-8-8-8-8-3-3-3-3-3-3-3-3------|

I'm not quite sure what effects he's using here. I usually use chorus with slight, 
distortion. He may be using some slight delay as well, but I'm not sure.

 bridge
e----10--------------------------14--------    -------1---------1-----|
B------------------13----------------------    -------0---------0-----|
G-8-----------8----------------------0-----    -------0---------0-----|
D--------0-------------------13------------ x8 -----------------0-----| x4
A------------------------10----------------    -----------------------|
E------------------------------------------    -3b4-r---3-3b4-3-------|

This part, I'm really unsure of, but this is my best guess:

e-10-------8--------10------------------------------|
B-8--------8--------10-------0----------------------|
G-8--------7--------8--------0----------------------|
D-8--------7--------8--------0----------------------|
A-6--------x--------6-------------------------------|
E----------8-----------------3----------------------|
           *
            
Submit corrections

comments powered by Disqus
↑ Back to top | Autolux Tabs for Plantlife. Lyrics for acoustic guitar and electric guitar. Tablatures and chords are parodies/interpretations of the original songs. You may use it for private study, scholarship, research or language learning purposes only